Vous êtes sur la page 1sur 7

Carulli - Op 114, Ventiquattro Preludi (24 Preludes) - No 18 - Prelude in G

***************************************************************************
version 1 - Alvaro edition (1973), MIDI 1, (Flavio Sala vid)
version 2 - Simrock edition (1919), MIDI 2
***************************************************************************

Op 114, No 18 - Prelude in G - Ferdinando Carulli (1770-1841)


edition - Alvaro Company - Edizioni Suvini Zerboni SpA Milano, 1973 (S7073Z)
tabbed by Weed - weed@wussu.com - 11 June 2014

MIDI: http://www.classtab.org/carulli_op114_no18_prelude_in_g_1.mid
Vid: http://www.youtube.com/watch?v=5PPQoXvWJOc - Flavio Sala

see Notes, Variations, and Legend below the tab

tuning: EADGBE key: G time: 4/4 speed: (quarter note) 96 bpm

p i m i a i m
- - - -
1 | . | . | . | . | . | . | . | .
E|---------------------------------|---------------------------------|
B|-----3---5p3---3-----3---5p3---3-|-----3---5p3---3-----3---5p3---3-|
G|---4---4-----4-----4---4-----4---|---2---2-----2-----2---2-----4---|
D|-5===============5===============|-4===============4===============|
A|---------------------------------|---------------------------------|
E|---------------------------------|---------------------------------|
3 2 1 4 1 3.................3 1 2 4 2
mf - mezzo forte (medium loud)

p i m i a
- - - -
3 | . | . | . | . | . | . | . | .
E|---------------------------------|---------------------------------|
B|-----2---3p2---2-----2---3p2---2-|-----3---5p3---3-----3---5p3---3-|
G|---0---0-----0-----0---0-----0---|---------------------------------|
D|-2===============2===============|---4---4-----4-----4---4-----4---|
A|---------------------------------|-5===============5===============|
E|---------------------------------|---------------------------------|
1 2 4 2 3 2 1 4 1 2....

CIV_____________________________
- - - -
5 | . | . | . | . | . | . | . | .
E|---------------------------------|---------------------------------|
B|-----1---3p1---1-----1---3p1---1-|---------------------------------|
G|---0---0-----0-----0---0-----0---|-----4---5p4---4-----4---5p4---4-|
D|-2===============2===============|---4---4-----4-----4---4-----4---|
A|---------------------------------|-5===============5===============|
E|---------------------------------|---------------------------------|
..2 1 4 3 4
poco meno (a little less quickly) diminuendo................poco...

CII_____________________________
7 | . | . | . | . | . | . | . | .
E|---------------------------------|---------------------------------|
B|---------------------------------|---------------------------------|
G|-----2---4p2---2-----2---4p2---2-|-----0---2p0---0-----0---2p0---0-|
D|---2---2-----2-----2---2-----2---|---0---0-----0-----0---0-----0---|
A|-3===============3===============|-2===============2===============|
E|---------------------------------|---------------------------------|
2 4 2.................2 3
..a poco (gradually getting softer) p - piano (soft)

> -
9 | . | . | . | . | . | . | . | .
E|---------------------------------|---------------------------------|
B|---------------------------------|---------------------------------|
G|-----0---2p0---0-----0---2p0---0-|-----0---2p0---0-----0---2p0---0-|
D|---2---2-----2-----2---2-----2---|---2---2-----2-----2---0-----2---|
A|-1===============1===============|-0===============0===============|
E|---------------------------------|---------------------------------|
1 2 3 2 3
mf > > > > > > > > > > > > > > p - piano (soft) < < < < < < <

> -
11 | . | . | . | . | . | . | . | .
E|-----3---5p3---3-----3---5p3---3-|-----3---5p3---3-----3---5p3---3-|
B|---3---3-----3-----3---3-----3---|---2---2-----2-----2---2-----2---|
G|---------------------------------|---------------------------------|
D|---------------------------------|---------------------------------|
A|-1===============1===============|-0===============0===============|
E|---------------------------------|---------------------------------|
1 2 3 4 3 2 3
mf > > > > > > > > > > > > > > p < < < < < < <

> > > >


13 | . | . | . | . | . | . | . . .
E|-----1---3p1---3-----1---3p1---1-|-----1---3p1---1-----1---3p1---1-|
B|---3---3-----3-----3---3-----3---|---3---3-----3-----3---3-----3---|
G|---------------------------------|-0===============2===============|
D|-0===============3===============|---------------------------------|
A|---------------------------------|---------------------------------|
E|---------------------------------|---------------------------------|
3 1 4 1 2 3 1 4 3 1 4 1 2
mp - mezzo piano (medium soft)

> > > >


15 | . | . | . | . | . | . | . | .
E|-----1---3p1---1-----1---3p1---1-|-----1---3p1---1-----0---1p0---0-|
B|---3---3-----3-----3---3-----3---|---3---3-----3-----2---2-----2---|
G|-3===============----------------|-0===============2===============|
D|-----------------3===============|---------------------------------|
A|---------------------------------|---------------------------------|
E|---------------------------------|---------------------------------|
2 3 1 4 2 2 3 1 3

> p i m i a
17 | . | . | . | . | . | . | . | .
E|-----2---3p2---2-----2---3p2---2-|-----3---5p3---3-----3---5p3---3-|
B|---1---1-----1-----1---1-----1---|---------------------------------|
G|---------------------------------|---3---3-----3-----3---3-----3---|
D|-0===============0===============|-0===============0===============|
A|---------------------------------|---------------------------------|
E|---------------------------------|---------------------------------|
1 2 4 2 1 2 4 2 2
mp crescendo........................................poco...
19 | . | . | . | . | . | . | . | .
E|-----5---6p5---5-----5---6p5---5-|-----6---8p6---6-----6---8p6---6-|
B|---7---7-----7-----7---7-----7---|---8---8-----8-----8---8-----8---|
G|---------------------------------|---------------------------------|
D|-0===============0===============|-0===============0===============|
A|---------------------------------|---------------------------------|
E|---------------------------------|---------------------------------|
4 2 3 3 1 2 3 1 4 2 1 3
..a poco (gradually getting louder).................................

> - > - > - -


21 | . | . | . | . | . | . | . | .
E|-----9---10p9--9-----9---10p9--9-|-----10--10--10------10--10--10--|
B|---8---8-----8-----8---8-----8---|---7---7---7---7---7---7---7---7-|
G|---------------------------------|---------------------------------|
D|---------------------------------|-0===============0===============|
A|-6===============6===============|---------------------------------|
E|---------------------------------|---------------------------------|
1 2 3 4 3 1 4
ff - fortissimo (very loud) > > > > > > > >

CV______________________________
- - - -
23 | . | . | . | . | . | . | . | .
E|-----7---8p7---7-----7---8p7---7-|-----8---8---8-------8---8---8---|
B|---6---6-----6-----6---6-----6---|---5---5---5---5---5---5---5---5-|
G|-0===============0===============|-5===============5===============|
D|---------------------------------|---------------------------------|
A|---------------------------------|---------------------------------|
E|---------------------------------|---------------------------------|
2 3 4 3 4
f - forte (loud) > > > > > > > >

__________________________________
- - - -
25 | . | . | . | . | . | . | . | .
E|-----5---7p5---5-----5---7p5---5-|-----3---5p3---3---3---5p3---3---|
B|---5---5-----5-----5---5-----5---|---0---0-----0---0---0-----0-----|
G|---------------------------------|---------------------------------|
D|---------------------------------|-0===============0===============|
A|---------------------------------|---------------------------------|
E|-8===============8===============|---------------------------------|
3 2 2 4
mf

CIII____________
p
- - arp.
27 | . | . | . | . | . | . | . | .
E|-----2---3p2---2-----2---3p2---2-|-3===============---------------||
B|---1---1-----1-----1---1-----1---|-3===============---------------||
G|---------------------------------|-4===============---------------||
D|-0===============0===============|-5===============---------------||
A|---------------------------------|-5===============---------------||
E|---------------------------------|-3===============---------------||
1 2 3 2 2
4
3
Notes
-----
The Simrock edition misses out measure 11,and insert an extra measure after 15.
Measures 21, 23, 24 are different in the Simrock edition.
The accents are differently placed in the Simrock edition.

Legend
------
left hand fingering below tab right hand fingering above tab
1 - index finger p - thumb
2 - middle finger i - index finger
3 - ring finger m - middle finger
4 - little finger a - ring finger

CII___ - barre on the 2nd fret (using the 1st finger)


CIII__ - barre on the 3rd fret (using the 1st finger)
CIV___ - barre on the 4th fret (using the 1st finger)
CV____ - barre on the 5th fret (using the 1st finger)

= - note held
- - tenuto (note held for slightly longer than it's full length)
> - accented
p - pull-off
arp. - arpeggiate - play upwards with thumb from 6th string to 1st string

> > > - crescendo - growing louder


< < < - decrescendo - growing softer

******************************************************************************

Op 114, No 18 - Prelude in G - Ferdinando Carulli (1770-1841)


edition - N Simrock, 1919 - Stich und Druck von CG Roder GmbH Leipzig (13910)
tabbed by Weed - weed@wussu.com - 11 June 2014

MIDI: http://www.classtab.org/carulli_op114_no18_prelude_in_g_2.mid

see Notes and Legend below the tab

tuning: EADGBE key: G time: 4/4

p i m i m i m p i m i m i m
cIII__________________________ cII_____________________________
> > > >
1 | . | . | . | . | . | . | . | .
E|---------------------------------|---------------------------------|
B|-----3---5p3---3-----3---5p3---3-|-----3---5p3---3-----3---5p3---3-|
G|---4---4-----4-----4---4-----4---|---2---2-----2-----2---2-----4---|
D|-5===============5===============|-4===============4===============|
A|---------------------------------|---------------------------------|
E|---------------------------------|---------------------------------|
3 2 4 3 2 4 2

cIII__________________________
> > > >
3 | . | . | . | . | . | . | . | .
E|---------------------------------|---------------------------------|
B|-----2---3p2---2-----2---3p2---2-|-----3---5p3---3-----3---5p3---3-|
G|---0---0-----0-----0---0-----0---|---------------------------------|
D|-2===============2===============|---4---4-----4-----4---4-----4---|
A|---------------------------------|-5===============5===============|
E|---------------------------------|---------------------------------|
1 2 3 2 3 2 4

CIV_____________________________
> > > >
5 | . | . | . | . | . | . | . | .
E|---------------------------------|---------------------------------|
B|-----1---3p1---1-----1---3p1---1-|---------------------------------|
G|---0---0-----0-----0---0-----0---|-----4---5p4---4-----4---5p4---4-|
D|-2===============2===============|---4---4-----4-----4---4-----4---|
A|---------------------------------|-5===============5===============|
E|---------------------------------|---------------------------------|
2 1 4 2 3

CII_____________________________
> > > >
7 | . | . | . | . | . | . | . | .
E|---------------------------------|---------------------------------|
B|---------------------------------|---------------------------------|
G|-----2---4p2---2-----2---4p2---2-|-----0---2p0---0-----0---2p0---0-|
D|---2---2-----2-----2---2-----2---|---0---0-----0-----0---0-----0---|
A|-3===============3===============|-2===============2===============|
E|---------------------------------|---------------------------------|
2 4 2 3

> > > >


9 | . | . | . | . | . | . | . | .
E|---------------------------------|---------------------------------|
B|---------------------------------|---------------------------------|
G|-----0---2p0---0-----0---2p0---0-|-----0---2p0---0-----0---2p0---0-|
D|---2---2-----2-----2---2-----2---|---2---2-----2-----2---0-----2---|
A|-1===============1===============|-0===============0===============|
E|---------------------------------|---------------------------------|
1 2 3 2 3

cII___________________________ cI____________________________
> > > >
11 | . | . | . | . | . | . | . | .
E|-----3---5p3---3-----3---5p3---3-|-----1---3p1---3-----1---3p1---1-|
B|---2---2-----2-----2---2-----2---|---3---3-----3-----3---3-----3---|
G|---------------------------------|---------------------------------|
D|---------------------------------|-0===============3===============|
A|-0===============0===============|---------------------------------|
E|---------------------------------|---------------------------------|
2 4 3 4 2 3 4

> > > >


13 | . | . | . | . | . | . | . . .
E|-----1---3p1---1-----1---3p1---1-|-----1---3p1---1-----1---3p1---1-|
B|---3---3-----3-----3---3-----3---|---3---3-----3-----3---3-----3---|
G|-0===============2===============|-3===============----------------|
D|---------------------------------|-----------------3===============|
A|---------------------------------|---------------------------------|
E|---------------------------------|---------------------------------|
3 1 4 1 3 1 2 2 3 1 4 2

> > > >


15 | . | . | . | . | . | . | . | .
E|-----1---3p1---1-----0---1p0---0-|-----1---3p1---1-----1---3p1---1-|
B|---3---3-----3-----2---2-----2---|---3---3-----3-----3---3-----3---|
G|-0===============2===============|---------------------------------|
D|---------------------------------|-0===============0===============|
A|---------------------------------|---------------------------------|
E|---------------------------------|---------------------------------|
2 3 1 3 3 1 4

cIII__________________________
> > > >
17 | . | . | . | . | . | . | . | .
E|-----2---3p2---2-----2---3p2---2-|-----3---5p3---3-----3---5p3---3-|
B|---1---1-----1-----1---1-----1---|---------------------------------|
G|---------------------------------|---3---3-----3-----3---3-----3---|
D|-0===============0===============|-0===============0===============|
A|---------------------------------|---------------------------------|
E|---------------------------------|---------------------------------|
1 2 4 2 4

cV____________________________ cVI___________________________
> > > >
19 | . | . | . | . | . | . | . | .
E|-----5---6p5---5-----5---6p5---5-|-----6---8p6---6-----6---8p6---6-|
B|---7---7-----7-----7---7-----7---|---8---8-----8-----8---8-----8---|
G|---------------------------------|---------------------------------|
D|-0===============0===============|-0===============0===============|
A|---------------------------------|---------------------------------|
E|---------------------------------|---------------------------------|
3 2 3 4

CVI_____________________________ cVII__________________________
> >
21 | . | . | . | . | . | . | . | .
E|-----9---9---9-------9---9---9---|-----10--10--10------10--10--10--|
B|---8---8---8---8---8---8---8---8-|---7---7---7---7---7---7---7---7-|
G|---------------------------------|---------------------------------|
D|---------------------------------|-0===============0===============|
A|-6===============6===============|---------------------------------|
E|---------------------------------|---------------------------------|
3 4 4

> > > >


23 | . | . | . | . | . | . | . | .
E|-----8---10p8--8-----8---10p8--8-|-----7---8p7---7-----7---8p7---7-|
B|---7---7-----7-----7---7-----7---|---8---8-----8-----8---8-----8---|
G|---------------------------------|---------------------------------|
D|-0===============0===============|-0===============0===============|
A|---------------------------------|---------------------------------|
E|---------------------------------|---------------------------------|
1 2 4 2 1 3

CV______________________________
>
25 | . | . | . | . | . | . | . | .
E|-----5---7p5---5-----5---7p5---5-|-----3---5p3---3---3---5p3---3---|
B|---5---5-----5-----5---5-----5---|---0---0-----0---0---0-----0-----|
G|---------------------------------|---------------------------------|
D|---------------------------------|-0===============0===============|
A|---------------------------------|---------------------------------|
E|-8===============8===============|---------------------------------|
4 3 2 4

CIII____________
arp.
27 | . | . | . | . | . | . | . | .
E|-----2---3p2---2-----2---3p2---2-|-3===============---------------||
B|---1---1-----1-----1---1-----1---|-3===============---------------||
G|---------------------------------|-4===============---------------||
D|-0===============0===============|-5===============---------------||
A|---------------------------------|-5===============---------------||
E|---------------------------------|-3===============---------------||
1 2 3 2 2
4
3

Notes
-----
The Alvaro edition inserts an extra measure after 10 and misses out measure 16.
Measures 21, 23, 24 are different in the Alvaro edition.
Suggested tempo from the Alvaro edition 96 bpm (quarter notes).
The Alvaro edition has no tenutos, and the accents are differently placed.

Legend
------
left hand fingering below tab right hand fingering above tab
1 - index finger p - thumb
2 - middle finger i - index finger
3 - ring finger m - middle finger
4 - little finger

cI____ - part barre on the 1st fret (using the 1st finger)
cII___ - part barre on the 2nd fret (using the 1st finger)
CII___ - full barre on the 2nd fret (using the 1st finger)
cIII__ - part barre on the 3rd fret (using the 1st finger)
CIII__ - full barre on the 3rd fret (using the 1st finger)
CIV___ - full barre on the 4th fret (using the 1st finger)
cV____ - part barre on the 4th fret (using the 1st finger)
CV____ - full barre on the 5th fret (using the 1st finger)
cVI___ - part barre on the 6th fret (using the 1st finger)
CVI___ - full barre on the 6th fret (using the 1st finger)
cVII__ - part barre on the 7th fret (using the 1st finger)

= - note held
> - accented
p - pull-off
arp. - arpeggiate - play upwards with thumb from 6th string to 1st string

******************************************************************************

more classical guitar tabs at http://www.classtab.org

Vous aimerez peut-être aussi