Vous êtes sur la page 1sur 6

Ferdinando Carulli - Op 114, Ventiquattro Preludi - No 24, Prelude in C

tabbed by Weed - weed@wussu.com - 28 April 2015

MIDI: http://www.classtab.org/carulli_op114_no24_prelude_in_c.mid

see Legend below the tab

tuning: EADGBE key: C time: 4/4 tempo: 120 bpm (quarter notes)

v p m p m a m p m
1 | . | . | . | . | . | . | . | .
E|---------------------------------|---------------------------------|
B|---------1---------------1-------|---------0---------------0-------|
G|---0---0---0---0---0---0---0---0-|---1---1---1---1---1---1---1---1-|
D|-----2=======2===----2=======2===|-----3=======3===----3=======3===|
A|-3===------------3===------------|-3===------------3===------------|
E|---------------------------------|---------------------------------|
3 2 1 3 1 4
mp < < < < < < < sf > > > > > > >

3 | . | . | . | . | . | . | . | .
E|---------------------------------|---------------------------------|
B|---------1---------------1-------|---------0---------------0-------|
G|---0---0---0---0---0---0---0---0-|---1---1---1---1---1---1---1---1-|
D|-----2=======2===----2=======2===|-----3=======3===----3=======3===|
A|-3===------------3===------------|-3===------------3===------------|
E|---------------------------------|---------------------------------|
mp < < < < < < < sf > > > > > > >

5 | . | . | . | . | . | . | . | .
E|---------------------------------|---------------------------------|
B|---------1---------------1-------|---------3---------------3-------|
G|---0---0---0---0---0---0---0---0-|---0---0---0---0---0---0---0---0-|
D|-----2=======2===----2=======2===|-----0=======0===----0=======0===|
A|-3===------------3===------------|-2===------------2===------------|
E|---------------------------------|---------------------------------|
2 4
mp < < < < < < < < < < < < < < < <

7 | . | . | . | . | . | . | . | .
E|---------0---------------0-------|---------1---------------1-------|
B|---1---1---1---1---1---1---1---1-|---0---0---0---0---0---0---0---0-|
G|-----0=======0===----0=======0===|-----0=======0===----0=======0===|
D|---------------------------------|-0===------------0===------------|
A|-3===------------3===------------|---------------------------------|
E|---------------------------------|---------------------------------|
3 1 1
< < < < < < < < < < < < < < < < < < < < < < < < < < < < < < < < <

9 | . | . | . | . | . | . | . | .
E|---------3---------------3-------|---------5---------------5-------|
B|---1---1---1---1---1---1---1---1-|---4---4---4---4---4---4---4---4-|
G|-----0=======0===----0=======0===|-----5=======5===----5=======5===|
D|-2===------------2===------------|-4===------------4===------------|
A|---------------------------------|---------------------------------|
E|---------------------------------|---------------------------------|
2 1 4 4 1 2 3 4 3
< < < < < < < < < < < < < < < < < < < < < < < < < < < < < < < < <
CIII_______________________________________________________________
11 | . | . | . | . | . | . | . | .
E|---------3---------------3-------|---------3---------------3-------|
B|---5---5---5---5---5---5---5---5-|---3---3---3---3---3---3---3---3-|
G|-----5=======5===----5=======5===|-----4=======4=======4=======4===|
D|-5===------------5===------------|---------------------------------|
A|---------------------------------|---------------------------------|
E|---------------------------------|-3===------------3===------------|
2 4 3 4 3.........3 3
f > > > > > > > >

________________________________
13 | . | . | . | . | . | . | . | .
E|---------------------------------|---------0---------------0-------|
B|---------5---------------5-------|---2---2---2---2---2---2---2---2-|
G|---5---5---5---5---5---5---5---5-|-----0=======0===----0=======0===|
D|-----5=======5===----5=======5===|---------------------------------|
A|-3===------------3===------------|-1===------------0===------------|
E|---------------------------------|---------------------------------|
1 3 2 4 4 1 4 4
mf > > > > > > > > > > > > > mp sf sf

CIII____________________________
15 | . | . | . | . | . | . | . | .
E|---------------------------------|---------------------------------|
B|---------3---------------3-------|---------3---------------3-------|
G|---2---2---2---2---2---2---2---2-|---4---4---4---4---4---4---4---4-|
D|-0===3=======3===0===3=======3===|-----3=======3===----3=======3===|
A|---------------------------------|---------------------------------|
E|---------------------------------|-4===------------3===------------|
1 3 4 2 3 3 3 3
> > > > > > > > > > > > > sf

p m a i p m a i p m a i
17 | . | . | . | . | . | . | . | .
E|---------------------------------|-----8-------8-------7-------7---|
B|---------1---------------1-------|---8-------8-------6-------6-----|
G|---0---0---0---0---0---0---0---0-|---------------------------------|
D|-----2=======2===----2=======2===|-----------------0=====0-0=====0-|
A|-3===------------3===------------|-7=====7-7=====7-----------------|
E|---------------------------------|---------------------------------|
3 2 1 1 3 4 2 4
> > > > > > > > > > > > mf

cI______________
19 | . | . | . | . | . | . | . | .
E|-----5-------5-------3-------3---|-----1-------1-------0-------0---|
B|---5-------5-------3-------3-----|---1-------1-------0-------0-----|
G|---------------------------------|---------------------------------|
D|---------------------------------|---------------------------------|
A|-3=====3-3=====3-2=====2=2=====2-|-0=====0-0=====0-----------------|
E|---------------------------------|-----------------3=====3-3=====3-|
1 3 4 1 3 4 3

CII_____________
21 | . | . | . | . | . | . | . | .
E|---------------------------------|---------------------------------|
B|-----3-------3-------2-------2---|-----3-------3-------4-------4---|
G|---2-------2-------0-------0-----|---2-------2-------2-------2-----|
D|---------------------------------|---------------------------------|
A|---------------------------------|---------------------------------|
E|-1=====1-1=====1-0=====0-0=====0-|-1=====1-1=====1-2=====2-2=====2-|
1 2 4 3 1 2 4 4
> > > > > > > > > > > > < < < < < < < < < < < < < < < <

CIII______________________________________________________________
23 | . | . | . | . | . | . | . | .
E|---------------------------------|---------------------------------|
B|---------5---------------5-------|---------3---------------3-------|
G|---5---5---5---5---5---5---5---5-|---4---4---4---4---4---4---4---4-|
D|-----5=======5===----5=======5===|-----3=======3===----3=======3===|
A|---------------------------------|---------------------------------|
E|-3===------------3===------------|-3===------------3===------------|
3 2 4 2 2

p m a i p m a i p m a i
CV_____ CVI____ CVIII_______________________________
25 | . | . | . | . | . | . | . | .
E|-------------8-------8-------8---|-----8--------8--------8-------8---|
B|-1---------5-------6-------8-----|---10-------8-------10-------6-----|
G|-0-------5=====5-7=====7-9=====9-|-10====10-9=====9-10====10-7=====7-|
D|-2-------------------------------|-----------------------------------|
A|-3-------------------------------|-----------------------------------|
E|---------------------------------|-----------------------------------|
1 4 2 2 4 2 3 4 2 3 4 3..3 2 4
2
3
mp < < < < < < < < < < < < < < < < < f > > > > > >

CV______ CI_____ CIII______________________________


27 | . | . | . | . | . | . | . | .
E|-----8-------3-------3-------3---|-----3-------3-------3-------3---|
B|---5-------0-------1-------3-----|---5-------3-------5-------1-----|
G|-5=====5-0=====0-2=====2-4=====4-|-5=====5-4=====4-5=====5-2=====2-|
D|---------------------------------|---------------------------------|
A|---------------------------------|---------------------------------|
E|---------------------------------|---------------------------------|
4 4 2 4 2 3 4 2 2 3 2 1 4
> > > > p < < < < < < < < < < < < < mf > > > > >

29 | . | . | . | . | . | . | . | .
E|-----3-------3-------6-------6---|-----5-------5-------3-------3---|
B|---0-------0-------3-------3-----|---2-------2-------5-------5-----|
G|-0=====0-0=====0-0=====0-0=====0-|-0=====0-0=====0-0=====0-0=====0-|
D|---------------------------------|---------------------------------|
A|---------------------------------|---------------------------------|
E|---------------------------------|---------------------------------|
4 1 4 1 4 3 1
mp < < < < < < < mf > > > > > > > > > > > > > > > >

31 | . | . | . | . | . | . | . | .
E|-----1-------1-------4-------4---|-----3-------3-------1-------1---|
B|---3-------3-------1-------1-----|---0-------0-------3-------3-----|
G|-0=====0-0=====0-0=====0-0=====0-|-0=====0-0=====0-0=====0-0=====0-|
D|---------------------------------|---------------------------------|
A|---------------------------------|---------------------------------|
E|---------------------------------|---------------------------------|
3 1 1 4 4 3 1
> > > > > > > > mp > > > > > > > > > > > > > > > >

p m a i p m a i CI______________
33 | . | . | . | . | . | . | . | .
E|-----0-------0-------------------|---------------------------------|
B|---1-------1---------1-------1---|-----1-------1-------1-------1---|
G|-0=====0-0=====0---0-------0-----|---2-------2-------2-------2-----|
D|---------------------------------|---------------------------------|
A|---------------------------------|---------------------------------|
E|-----------------0=====0-0=====0-|-1=====1-1=====1-2=====2-2=====2-|
1 1 2 1 2 4 2
> > > > > > > > p > > > > > > > > > > > > > > > > >

CIII____________
35 | . | . | . | . | . | . | . | .
E|---------------------0-------0---|-----0-------0-------1-------1---|
B|-----3-------3-----0-------0-----|---1-------1-------3-------3-----|
G|---4-------4---------------------|---------------------------------|
D|---------------------------------|---------------------------------|
A|---------------------------------|-0=====0-0=====0-2=====2-2=====2-|
E|-3=====3-3=====3-4=====4-4=====4-|---------------------------------|
2 3 1 2 4 1
> > > > > > > > > > > > > > > > > > > > > > > > > > > > > > > > > > >

CI______________
p m a i p m a i p i p i m i p i a i p i m i p i
37 | . | . | . | . | . | . | . | .
E|-----0---------------------------|-----------------0---------------|
B|---0---------1-------1-------0---|---------1---------------1-------|
G|---------------------------------|---0---0---0---0---0---0---0---0-|
D|-----------1-------2-------0-----|-----2=======2=======2=======2===|
A|-3=====3-------------------------|-3===----------------------------|
E|---------2=====2-3=====3-3=====3-|---------------------------------|
3 2 3 2 3 3 2 1
> > > > > > > > > > > > > > > > > mf

39 | . | . | . | . | . | . | . | .
E|-----------------0---------------|---------------------------------|
B|---------1---------------1-------|---------------------------------|
G|---0---0---0---0---0---0---0---0-|---------------------------------|
D|-----2=======2=======2=======2===|---------------------------------|
A|-3===----------------------------|-3===============----------------|
E|---------------------------------|---------------------------------|
mp

Notes
-----

editions - Alvaro Company - Edizioni Suvini Zerboni SpA Milano, 1973 (S7073Z)
- N Simrock, 1919 - Stich und Druck von CG Roder GmbH Leipzig (13910)

alternative right hand fingering (Alvaro edition) -

p i p i m i p i p m p m a m p m
1 | . | . | . | . 1 | . | . | . | .
E|---------------------------------| E|---------------------------------|
B|---------1---------------1-------| B|---------1---------------1-------|
G|---0---0---0---0---0---0---0---0-| G|---0---0---0---0---0---0---0---0-|
D|-----2=======2===----2=======2===| D|-----2=======2===----2=======2===|
A|-3===------------3===------------| A|-3===------------3===------------|
E|---------------------------------| E|---------------------------------|

p i m p p i m p p i m p p m a p p m a p p m a p
18 | . | . | . | . 18 | . | . | . | .
E|-----8-------8-------7-------7---| E|-----8-------8-------7-------7---|
B|---8-------8-------6-------6-----| B|---8-------8-------6-------6-----|
G|---------------------------------| G|---------------------------------|
D|-----------------0=====0-0=====0-| D|-----------------0=====0-0=====0-|
A|-7=====7-7=====7-----------------| A|-7=====7-7=====7-----------------|
E|---------------------------------| E|---------------------------------|

p i m p p i m p p i m p p m a p p m a p p m a p
25 | . | . | . | . 25 | . | . | . | .
E|-------------8-------8-------8---| E|-------------8-------8-------8---|
B|-1---------5-------6-------8-----| B|-1---------5-------6-------8-----|
G|-0-------5=====5-7=====7-9=====9-| G|-0-------5=====5-7=====7-9=====9-|
D|-2-------------------------------| D|-2-------------------------------|
A|-3-------------------------------| A|-3-------------------------------|
E|---------------------------------| E|---------------------------------|

p i m p p i m p
33 | . | . | . | .
E|-----0-------0-------------------|
B|---1-------1---------1-------1---|
G|-0=====0-0=====0---0-------0-----|
D|---------------------------------|
A|---------------------------------|
E|-----------------0=====0-0=====0-|

p i a p p i a p p p m p m a m p m a m p m a m p m
37 | . | . | . | . | . | . | . | .
E|-----0---------------------------|-----------------0---------------|
B|-------------1-------1-------0---|---------1---------------1-------|
G|---0-----------------------------|---0---0---0---0---0---0---0---0-|
D|-----------1-------2-------0-----|-----2=======2=======2=======2===|
A|-3=====3-------------------------|-3===----------------------------|
E|---------2=====2-3=====3-3=====3-|---------------------------------|

variations (Alvaro edition) -

p i p i m i p i p m p m a m p m
1 | . | . | . | . 1 | . | . | . | .
E|---------------------------------| E|---------------------------------|
B|---------1===============1=======| B|---------1===============1=======|
G|---0---0---0---0---0---0---0---0-| G|---0---0---0---0---0---0---0---0-|
D|-----2=======2===----2=======2===| D|-----2=======2===----2=======2===|
A|-3===------------3===------------| A|-3===------------3===------------|
E|---------------------------------| E|---------------------------------|

p m i m a m i m p m i m a m i m
1 | . | . | . | . 1 | . | . | . | .
E|---------------------------------| E|---------------------------------|
B|---------1---------------1-------| B|---------1===============1=======|
G|---0---0---0---0---0---0---0---0-| G|---0---0---0---0---0---0---0---0-|
D|-----2-------2-------2-------2---| D|-----2-------2-------2=======2===|
A|-3===============3===============| A|-3===============3===============|
E|---------------------------------| E|---------------------------------|

variations (Simrock edition) -

13 | . | . | . | . 18 | . | . | * . | * .
E|---------------------------------| E|-----8-------8-------7-------7---|
B|---------1---------------1-------| B|---8-------8-------7-------7-----|
G|---0---0---0---0---0---0---0---0-| G|---------------------------------|
D|-----2-------2-------2-------2---| D|---------------------------------|
A|-3===------------3---------------| A|-7=====7-7=====7-5=====5-5=====5-|
E|---------------------------------| E|---------------------------------|
3 2 1 1 3 4 1 3 4

CIII____________________________
24 | . | . | . | .
E|---------------------------------|
B|---------3---------------3-------|
G|---4---4---4---4---4---4---4---4-|
D|-----5=======5===----5=======5===|
A|---------------------------------|
E|-3===------------3===------------|

Legend
------

left hand fingering below tab right hand fingering above tab
1 - index finger p - thumb
2 - middle finger i - index finger
3 - ring finger m - middle finger
4 - little finger a - ring finger

= - note held

> > - crescendo - getting louder


< < - decrescendo - getting softer
mf - mezzo forte - medium loud
mp - mezzo piano - medium soft
sf - sforzando - forced, strongly accented

CI____ - barre on the 1st fret (using the 1st finger)


CII___ - barre on the 2nd fret (using the 1st finger)
CIII__ - barre on the 3rd fret (using the 1st finger)

******************************************************************************

more classical guitar tabs at http://www.classtab.org

Vous aimerez peut-être aussi