Vous êtes sur la page 1sur 2

So what metallica solo:

e:-------------------------------|-------------------------------|
B:---13/15~--15~-15~-15~-15~-15~-|---13/15~--15~-15~-15~-15~-15~-|
G:---12/14~--14~-14~-14~-14~-14~-|---12/14~--14~-14~-14~-14~-14~-|
D:-------------------------------|-------------------------------|
A:-------------------------------|-------------------------------|
E:-------------------------------|-------------------------------|

e:--------------------------------------|-----------------------------------|
B:---13/15~--13/15~--13/15\13/15~--15~--|-----------------------------------|
G:---12/14~--12/14~--12/14\12/14~--14~--|--7/9--7--5-----5--7---5/7~--5/7~--|
D:--------------------------------------|-------------7---------------------|
A:--------------------------------------|-----------------------------------|
E:--------------------------------------|-----------------------------------|

e:------------------------------|---------------------------|
B:------------------------------|---------------------------|
G:--5/7~--5--7---------5--7--5--|------5--7--5-----5--7--5--|
D:------------------7-----------|---7-----------7-----------|
A:------------------------------|---------------------------|
E:------------------------------|---------------------------|

e:----------------------|--------------------------------|
B:----------------------|---13/15~--15~-15~-15~-15~-15~--|
G:--5-------------------|---12/14~--14~-14~-14~-14~-14~--|
D:----------------------|--------------------------------|
A:----------------------|--------------------------------|
E:----------------------|--------------------------------|

e:---------------------------------|-------------------------|
B:---------------------------------|-------------------------|
G:--12/14--12--------------12--14--|--12/14\12/14\12--14~----|
D:-------------15--12--15----------|-------------------------|
A:---------------------------------|-------------------------|
E:---------------------------------|-------------------------|

e:---------------------------------------------|------------------------|
B:---------------------------------------------|------------------------|
G:--12/14--12--------------12--14--12----------|---7~-----5-------------|
D:-------------15--12--15--------------15--12--|-------------7----------|
A:---------------------------------------------|------------------------|
E:---------------------------------------------|------------------------|

e:-------------------------|----------------------|-------------------------|
B:-------------------------|----------------------|-------------------------|
G:------5------------------|-----5-----5--7--9~---|--7/9\7--5/7\5-----5-----|
D:---7-----7--5--7---------|--7-----7-------------|----------------7-----7--|
A:-------------------------|----------------------|-------------------------|
E:-------------------------|----------------------|-------------------------|

e:-------------------------------|-----------------------------|
B:-------------------------------|-----------------------20----|
G:-------17--19--17--------------|-------17--19--17------------|
D:---19--------------19--19------|---19--------------19--------|
A:-------------------------------|-----------------------------|
E:-------------------------------|-----------------------------|

e:---17/19\17------------------------------------|
B:------------20-17----------------17-20----20~--|
G:------------------19-17----17-19-------19-19~--|
D:------------------------19---------------------|
A:-----------------------------------------------|
E:-----------------------------------------------|

e:----------------------------|----------------------------|
B:----------------------------|-----------------------20---|
G:-------17--19--17-----------|-------17--19--17-----------|
D:---19--------------19--19---|---19--------------19-------|
A:----------------------------|----------------------------|
E:----------------------------|----------------------------|
e:---------------------------|
B:-------17--20~--20~--20~---|
G:---19------19~--19~--19~---|
D:---------------------------|
A:---------------------------|
E:---------------------------|
SOLO'S END.

e:----------------------------------------------------------|
B:----------------------------------------------------------|
G:---17--------------17------17--19--17/19\17------17-------|
D:-------19--17--19------19--------------------19------19~--|
A:----------------------------------------------------------|
E:----------------------------------------------------------|.

Vous aimerez peut-être aussi