Vous êtes sur la page 1sur 2

Band: The Offspring

Song: Pretty Fly


Album: Americana

Tabbed by: Mrhat170@aol.com Corrig�e par Nico


nico.g@online.fr

reapeat 4 times Jouez en boucle


(distortion)
intro
E:-----------------------------------------------------
B:-----------------------------------------------------
G:-----------------------------------------------------
D:--4---4-----4---4-9-7--------------------------------
A:--2---2-4-7-2---2-7-5--------------------------------
E:--------2-5------------------------------------------

verse
Clean
reapeat 7 times. Riff guitare couplets
E:----------------------------------------------------------
B:---------12-----12----------------------------------------
G:---------11-----11----------------------------------------
D:----------9------9----------------------------------------
A:----------------------------------------------------------
E:----------------------------------------------------------

chourus
distortion
reapeat3 times
E:----------------------------------------------------------
B:----------------------------------------------------------
G:----------------------------------------------------------
D:-------10/11-10/11---------10/11-10/11--7--7---7--7-9-10-9
A:9--9-9--8/-9--8/-9--9--9-9--8/-9--8/-9--5--5-7-5--5-7--8-7
E:7--7-7--------------7--7-7-------------------5------------

end of chours

E:------------------------------------------------------------
B:------------------------------------------------------------
G:------------------------------------------------------------
D:-7----12--12----12----------12/11/10---7/9------------------
A:-5-7--10--10-12-10-7--7-2-7-10/-9/-8-9-5/7-9----------------
E:---5---------10----5--5-0-5----------7-----7----------------

reapeat intro

reapeat verse

reapeat chourus

Couplets Basse jouez en boucle

E:---------------------------------------------------------
B:---------------------------------------------------------
G:---------------------------------------------------------
D:---------------2-0---------------------------------------
A:-2--2---0-2--2-------------------------------------------
E:------2--------------------------------------------------

Reapeat intro

reapeat chorus

Pont

E:-------------------------------------------------------------
B:-------------------------------------------------------------
G:-------------------------------------------------------------
D:------------------------9-7----------------------------------
A:-9---7-9---7-9---7-9--9-7-5----------------------------------
E:-7---5-7---5-7---5-7--7--------------------------------------

~http://www.muzik.fr.st~