Vous êtes sur la page 1sur 2

Earth Wind and Fire

Power

2'12 (Bass Enter) :

G|--------------------------|-------------------------------|
D|-7-7-5-7----7-7-5---------|-5-7-5--7-x-7----7-7-5---------|
A|------------------7-------|-----------------------7-------|
E|--------------------0-x-5-|-------------------------0-x-5-|

4'32 (Bass Solo) :

G|---------------------------------------------|--------8-9-10------------------------------|
D|--------------------------910--910--910---|--------------------------------------------|
A|---6-7-8-----------6-7-8-------------------8-|---6-8-------------------------6-8----6-7-8-|
E|-1--------6-8-1--8---------------------------|-8-------------11-12-13--6-7-8------8-------|

4'48

G|---------------------8-9-10----------------|-----------------------------------------|
D|-------------------------------------------|-----------------------------------------|
A|-------6-8----6-7-8-----------6-8----------|--------6-7-8------6-7-8-------68-------|
E|-6-7-8------8---------------8------813-13-|-6-8-1--------8-1--------8-13------68-1-|

5'04

G|----------------------------------------|-------------------------------------------------------
---------|
D|----------------------------------------|-----------8-9-10-10----13-14-15--------13-14-15-13-14-
15-------|
A|-6-7-8-------6-7-8-------6-7-8------6-8-|-----10-8------------8-----------15--------------------
---15----|
E|-------8-13--------8-13--------8-1------|-6-8--------------------------------13-----------------
------13-|

5'20

G|-----------------------22----------------|--------8-9-10------10--------68-----------|
D|------------------------------------------|--------------10------10----------8---------|
A|-68/6------6-7-8---------------6-7-8-----|-----------------8-------8--8-------8-------|
E|-------8-1--------8-1------8-1--------8-1-|-6-8-1--------------------------------11-13-|

5'39

G|---68--------68--------------68------|-------------------------------------------------------|
D|-------8----------8----------------8----|-13-14-15--13-14-15--13-14-15-13-14-15--13-14-15-------
|
A|-8-------8--8-------8--------8-------8--|-------------------------------------------------15----
|
E|----------------------11-13-------------|----------------------------------------------------13-
|

5'58

G|------------------------------------------||
D|--------------------------------------15--||
A|--6-7-8--6-7-8-6-7-8--6-7-8---------------||
E|----------------------------1--8--13------||

6'39 (Bass Outro) :

https://www.easyzic.com/partitions-tablatures/partition-earth-wind-and-fire,a1533.html Page 1/2


Earth Wind and Fire
Power

G|--------------------------|-------------------------------|
D|-7-7-5-7----7-7-5---------|-5-7-5--7-x-7----7-7-5---------|
A|------------------7-------|-----------------------7-------|
E|--------------------0-x-5-|-------------------------0-x-5-|

https://www.easyzic.com/partitions-tablatures/partition-earth-wind-and-fire,a1533.html Page 2/2