Vous êtes sur la page 1sur 3

Archive - Again | Tablature [PARTOCHES.FR] par Oliv' http://www.partoches.fr/tablatures.php?

id_partoche=107

Recherche sur le site


Partoches.fr, tablatures
de guitare avec extraits
audios au format mp3.

Accueil News Tablatures Annuaire Annonces Forums Liens Contact

Accueil > Tablatures > Again ( Archive ) Tabs

Archive
Again
(Album : You all look the same to me)
Transcription: Oliv'

Keren Ann
1. Intro - Couplet (en boucle) / Intro - Verse (in loop)
Nolita
e---------0-----1-------0-----------------0-----1-------0---------
b-----3-----3-------3-------3---3-----3-----3-------2-------2---2- Archive
g---2---2-----2-------2-------2-----2---2-----2-------3-------3---
d-0-------------------------------0------------------------------- Again
a-----------------------------------------------------------------
e----------------------------------------------------------------- Bérurier Noir

e---------1-----1-------1-----------------1-----1-------1--------- Salut à toi


b-----1-----1-------1-------1---------1-----1-------1-------1---1- Georges Brassens
g---3---3-----3-------3-------3-----3---3-----3-------3-------3---
d----------------------------------------------------------------- L'orage
a-1-------------------------------1------------------------------- La religieuse
e----------------------------------------------------------------- Le gorille
Le pornographe
Le roi
Les copains d'abord
2. Refrain / Refrain
Jeff Buckley
e---------1-----1-------1-----------------1-----1-------1---------
b-----1-----1-------1-------1---------1-----1-------1-------1---1- So real
g---2---2-----2-------2-------2-----2---2-----2-------2-------2---
d----------------------------------------------------------------- Eric Clapton
a-----------------------------------------------------------------
e-1-------------------------------1------------------------------- Layla

e---------1-----0-------1-----------------1-----0-------1--------- Pauline Croze


b-----3-----3-------3-------3---------3-----3-------2-------2---2- La Javanaise
g---2---2-----2-------2-------2-----2---2-----2-------3-------3---
d-0-------------------------------0------------------------------- The Cure
a-----------------------------------------------------------------
e----------------------------------------------------------------- Boys don't cry
Just like heaven
e---------0-----0-------0-----------------0-----0-------0--------- Three imaginary boys
b-----1-----1-------1-------1---------1-----1-------1-------1-----
g---2---2-----2-------2-------2-----2---2-----2-------2-------2--- Dionysos
d-----------------------------------------------------------------
a-0-------------------------------0------------------------------- Death Song (Ukulele)
e----------------------------------------------------------------- The Doors
e---------1-----0-------1-----------------1-----0-------1--------- People are strange
b-----3-----3-------3-------3---------3-----3-------2-------2---2-
g---2---2-----2-------2-------2-----2---2-----2-------3-------3--- The Eagles
d-0-------------------------------0-------------------------------
a----------------------------------------------------------------- Hotel California (Solo)
e-----------------------------------------------------------------
Thomas Fersen
e---------1-----1-------1-----------------1-----1-------1--------- Borborygmes
b-----1-----1-------1-------1---------1-----1-------1-------1---1-
g---2---2-----2-------2-------2-----2---2-----2-------2-------2--- Serge Gainsbourg
d-----------------------------------------------------------------
a----------------------------------------------------------------- La chanson de Prévert
e-1-------------------------------1-------------------------------
Jimi Hendrix
e---------1-----0-------1-----------------1-----0-------1---------
b-----3-----3-------3-------3---------3-----3-------2-------2---2- Purple haze

Loïc Lantoine

1 sur 3 09/02/2015 12:57


Archive - Again | Tablature [PARTOCHES.FR] par Oliv' http://www.partoches.fr/tablatures.php?id_partoche=107

Pierrot
g---2---2-----2-------2-------2-----2---2-----2-------3-------3---
d-0-------------------------------0------------------------------- The Last Shadow Puppets
a-----------------------------------------------------------------
e----------------------------------------------------------------- My mistakes were made for
you
e---------0-----0-------0-----------------0-----0-------0---------
Led Zeppelin
b-----1-----1-------1-------1---------1-----1-------1-------1-----
g---2---2-----2-------2-------2-----2---2-----2-------2-------2--- Stairway to heaven
d-----------------------------------------------------------------
a-0-------------------------------0------------------------------- M (Mathieu Chedid)
e-----------------------------------------------------------------
Mama Sam
e---------0-----1-------0-----------------0-----1-------0--------- Nostalgic du cool
b-----3-----3-------3-------3---------3-----3-------2-------2---2- Nostalgic du cool2
g---2---2-----2-------2-------2-----2---2-----2-------3-------3---
d-0-------------------------------0------------------------------- Mano Solo
a-----------------------------------------------------------------
15 ans du matin
e-----------------------------------------------------------------
A pas de géant
Barbès Clichy
Vos réactions sur cette tablature sur le forum Janvier
La liberté
Le drapeau
Naître gitan
Pas du gâteau
Quand tu m'diras
Soir de retour
Tous les jours

Bob Marley

Redemption song

Merzhin

Messieurs dames

Mickey 3D

Ma grand-mère
Respire

Muse

Dark shines
Falling down
Unintended

Nirvana

Rape me
Smells like teen spirit

Noir Désir

Bouquet de nerfs
L'homme pressé
Tostaky
Un jour en France

Oasis

Wonderwall

Pink Floyd

Is there anybody out there


Wish you were here

The Pixies

Where is my mind

The Police

Roxanne

Portishead

Roads

Radiohead

15 step
Creep (acoustic)
Fake plastic trees
Go slowly
How to disappear completely
I might be wrong
I will

2 sur 3 09/02/2015 12:57


Archive - Again | Tablature [PARTOCHES.FR] par Oliv' http://www.partoches.fr/tablatures.php?id_partoche=107

Karma police
Lucky
Paranoid android
Street spirit [fade out]

Red Hot Chili Peppers

I could have lied

REM

Losing my religion (Ukulele)

Ridan

Partie de golf

Sanseverino

La cigarette
Maigrir

Sinsemilia

Tout le bonheur du monde

Têtes Raides

Bibliothèque
Fragile
Ginette
Je chante
Les choses

Trust

Antisocial

U2

Desire
Sunday bloody sunday

3 sur 3 09/02/2015 12:57

Vous aimerez peut-être aussi