Vous êtes sur la page 1sur 3

November Rain / Gun's & Roses

SOLO 1

e|------------8----------------------8--------8-----------------------------|
B|--8b-8br-8b---8br-6--8br-8b-8br-8b---8br-5b---5br-5b-5v---------8---------|
G|--------------------------------------------------------7p5-7s9---9s7-5---|
D|--------------------------------------------------------------------------|
A|--------------------------------------------------------------------------|
E|--------------------------------------------------------------------------|

e|------------8----------------------8-8br-10br-8-10p8----8-----------------|
B|--8b-8br-8b---8br-6--8br-8b-8br-8b-------------------10---10s13v----------|
G|--------------------------------------------------------------------------|
D|--------------------------------------------------------------------------|
A|--------------------------------------------------------------------------|
E|--------------------------------------------------------------------------|

e|-13p12---13p12---13b-13v---12-13--12h13p12s10v--10-12-13br-12-b-12--------|
B|------13------13---------15-----------------------------------------------|
G|--------------------------------------------------------------------------|
D|--------------------------------------------------------------------------|
A|--------------------------------------------------------------------------|
E|--------------------------------------------------------------------------|

e|-19b-19-19-19s17-17-17s15-15-15s13-13-13s12-12-12h13p12---13v-------------|
B|-------------------------------------------------------15-----------------|
G|--------------------------------------------------------------------------|
D|--------------------------------------------------------------------------|
A|--------------------------------------------------------------------------|
E|--------------------------------------------------------------------------|

e|-12-13-12h13p12------12---------------------------------------------------|
B|----------------15-13--13--15h17p15-13-15-12-13-12h13p12-----12--10-------------|
G|--------------------------------------------------------14-12--12--10-12p10s9-9v|
D|--------------------------------------------------------------------------------|
A|--------------------------------------------------------------------------|
E|--------------------------------------------------------------------------|

e|---------------------------------------15---------------------------------|
B|---------s13v----------s13v---------15b--15br--13v--13b-------------------|
G|-9h10p9--------9h10p9-------9h10p9----------------------------------------|
D|-------12------------12-----------12--------------------------------------|
A|--------------------------------------------------------------------------|
E|--------------------------------------------------------------------------|

REFRAIN

e|--------------------------------------------------------------------------|
B|--------------5br--------------6br--5br-------------------5br-------------|
G|------5h7p5-------5----5h7--------------5---5s7---5h7p5-------5-----------|
D|--5h7-------7-------7------7s5------------7-----7-------7-------7---------|
A|--------------------------------------------------------------------------|
E|--------------------------------------------------------------------------|

e|--------------------------------------------------------------------------|
B|--------------------------------------------------------------------------|
G|---7--9--10--10s12--14--16--17--17s19-------------------------------------|
D|--------------------------------------------------------------------------|
A|--------------------------------------------------------------------------|
E|--------------------------------------------------------------------------|

1/3
November Rain / Gun's & Roses

SOLO 2

e|---------20-----20---------18b--------------------------------------------|
B|-18v--20b---20br---18--17v------17br-17bv---------------------------------|
G|--------------------------------------------------------------------------|
D|--------------------------------------------------------------------------|
A|--------------------------------------------------------------------------|
E|--------------------------------------------------------------------------|

e|-----------17-------------------------------------------------------------|
B|---17-18-20--18-20-17-18-20-17b-17------------------20--------------------|
G|-19-------------------------------19br-p17-19p17--17--17-17v--17-20b-20---|
D|------------------------------------------------19----------19------------|
A|--------------------------------------------------------------------------|
E|--------------------------------------------------------------------------|

e|--------------------------------------------------------------------------|
B|-18h20p18-17-18-17h18p17--17---20-----------------------------------------|
G|------------------------19--19b--19-17v-----------------------------------|
D|--------------------------------------------------------------------------|
A|--------------------------------------------------------------------------|
E|--------------------------------------------------------------------------|

SOLO 3

e|-19b-19v-20-20b-20-19-20-15----15-16v--15h16p15p13-15v--------------------|
B|----------------------------16--------------------------------------------|
G|--------------------------------------------------------------------------|
D|--------------------------------------------------------------------------|
A|--------------------------------------------------------------------------|
E|--------------------------------------------------------------------------|

e|-13-15-16-15h16p15p13----------13-15p13----13-------13--------------------|
B|----------------------16----16----------16----15-16----16-15-16--15b-15v--|
G|-------------------------17-----------------------------------------------|
D|--------------------------------------------------------------------------|
A|--------------------------------------------------------------------------|
E|--------------------------------------------------------------------------|

e|----------13-------13-----------------------------------------------------|
B|-13-15-16----15-16----15-13-----------------------------------------------|
G|--------------------------------------------------------------------------|
D|--------------------------------------------------------------------------|
A|--------------------------------------------------------------------------|
E|--------------------------------------------------------------------------|

e|-19b-19v-20-20b-20-19-20-15----15-16v--15h16p15p13-15v--------------------|
B|----------------------------16--------------------------------------------|
G|--------------------------------------------------------------------------|
D|--------------------------------------------------------------------------|
A|--------------------------------------------------------------------------|
E|--------------------------------------------------------------------------|

e|-------13-15-16-15h16p15p13----15----13h15p13----13-----------------------|
B|-15h16----------------------16----16----------16----16p13h15h16-----------|
G|--------------------------------------------------------------------------|
D|--------------------------------------------------------------------------|
A|--------------------------------------------------------------------------|
E|--------------------------------------------------------------------------|

2/3
November Rain / Gun's & Roses

e|-13h15h16p15p13----15-11h13--15p13p11----10h11h13p10----11p10-------------|
B|----------------16--------------------13-------------13-------13p11-13----|
G|--------------------------------------------------------------------------|
D|--------------------------------------------------------------------------|
A|--------------------------------------------------------------------------|
E|--------------------------------------------------------------------------|

e|-------------------19b-19v-20-b-20-19------------------------------------20v-|
B|-11p9h11p9h11p9--------------------------------------------------------------|
G|--------------------------------------19br-p17--19br-p17-20br-20br--17-20----|
D|----------------12-----------------------------------------------------------|
A|--------------------------------------------------------------------------|
E|--------------------------------------------------------------------------|

e|-20-19-20-15-18-16-18-15h16p15----15-------15----15----15-----------------|
B|-------------------------------18----16-18----16----16----16--------------|
G|--------------------------------------------------------------------------|
D|--------------------------------------------------------------------------|
A|--------------------------------------------------------------------------|
E|--------------------------------------------------------------------------|

e|-19b-19v-20-b-20-19-20-15----15-16v--15h16p15----15v----15-18brbv---------|
B|--------------------------16------------------18-----18-------------------|
G|--------------------------------------------------------------------------|
D|--------------------------------------------------------------------------|
A|--------------------------------------------------------------------------|
E|--------------------------------------------------------------------------|

e|-15----15-----------------------------------------------------------------|
B|----16----16--------------------------------------------------------------|
G|-------------17v--15-17-17-15---------------------------------------------|
D|------------------------------17-16-15-13-15-13-15-13---------------------|
A|------------------------------------------------------15------------------|
E|--------------------------------------------------------------------------|

e|-19b-19v-20-b-20-19-20-15----15-16v--15h16p15----15v----------------------|
B|--------------------------16------------------18--------------------------|
G|--------------------------------------------------------------------------|
D|--------------------------------------------------------------------------|
A|--------------------------------------------------------------------------|
E|--------------------------------------------------------------------------|

e|----15-16-b-16-18-15h16h18p16p15----16----15h16p15----15------------------|
B|-18------------------------------18----18----------18----18br-------------|
G|--------------------------------------------------------------------------|
D|--------------------------------------------------------------------------|
A|--------------------------------------------------------------------------|
E|--------------------------------------------------------------------------|

e|-------------------15-br--------19b-19v-20-b-20-19-20-15----15------------|
B|-16----18-16h18-16-------15br----------------------------16---------------|
G|----17--------------------------------------------------------------------|
D|--------------------------------------------------------------------------|
A|--------------------------------------------------------------------------|
E|--------------------------------------------------------------------------|

e|--------------------------------------------------------------------------|
B|-18br-p16-18br-16--15brv-b------------------------------------------------|
G|--------------------------------------------------------------------------|
D|--------------------------------------------------------------------------|
A|--------------------------------------------------------------------------|
E|--------------------------------------------------------------------------|

3/3

Vous aimerez peut-être aussi