Vous êtes sur la page 1sur 23

DARLIN- AVRIL LAVIGNE

C G
Am
F
C
Darling you're hiding in the closet once again,
G
Am F
start smiling
C
G
I know you're trying
Am
F
C
real hard not to turn your head away
G
pretty darling
Am
F
C
G Am F
face tomorrow, tomorrow is not yesterday
C
G Am F
Yesterday oh oooooh

[Chorus]
Am
F
C
G
Pretty please I know it's a drag
Am
F
C
G
wipe your eyes and put up your head
Am
F
C
G
I wish you could be happy instead
Am
F
There's nothing else I can do
C
G
But love you the best that I can
Am
F
C
G
yeah yeah yeah yeah

C G
Am
F
C
Darling I was there once a while ago
G
Am F
I know
C
G
Am
that it's hard to be stuck with
F
C
G
people that you love
Am
F
when nobody trusts

[Chorus]
Am
F
C
G
Pretty please I know it's a drag
Am
F
C
G
wipe your eyes and put up your head
Am
F
C
G
I wish you could be happy instead
Am
F
There's nothing else I can do
C
G
But love you the best that I can
Am
F
C
G
yeah yeah yeah yeah

Am

You're not the only one who's been trough


Am
F
C
G
I've been there alone and now so are you
Am
F
C
G
Am
F
I just want you to know why it's not your fault
C
G
it's not your fault
C F Am F C G
oh oh oh oh oh
Am
F
C
G
your fault, your fault
Am
F
it's not your fault
C
G
Am
F
your fault, your fault, your fault

[Chorus]
Am
F
C
G
Pretty please I know it's a drag
Am
F
C
G
wipe your eyes and put up your head
Am
F
C
G
I wish you could be happy instead
Am
F
There's nothing else I can do
C
G
But love you the best that I can
Am
F
C
G
yeah yeah yeah yeah
Am
F
C
G
Pretty please I know it's a drag
Am
F
C
G
wipe your eyes and put up your head
Am
F
C
G
I wish you could be happy instead
Am
F
There's nothing else I can do
C
G
Am
But love you the best that I can
Am
F
C
G
yeah yeah yeah yeah

C G
Am
F
C
Darling you're hiding in the closet once again,
G
Am F
start smiling

AVRIL LAVIGNE- SMILE tab

E|-------------------------|
B|-------------------------|
G|-9-------9----7----------|

D|-9-------9----7----5-----|
A|-7-------7----5----5-----|
E|-------------------3-----| x 2

E|------------------------|
B|------------------------|
G|-----4---7----9---------|
D|-5---4---7----9---------|
A|-5---2---5----7---------|
E|-3----------------------|you do two of the other one and one of this one like two and this
two an this

1.Bridge:

E|-3---3---3---3--------|
B|-3---3---3---3--------|
G|---------2------------|
D|-2-----------2--------|
A|-3---2-------2--------|
E|-----3----------------|

E|-3---3---3---3--------|
B|-3---3---3---3--------|
G|-------------2--------|
D|-2-------2------------|
A|-3---2---2------------|
E|-----3----------------| x 2

and repeat *intro & verses*

2.Bridge

E|-3---3---3---3--------|
B|-3---3---3---3--------|
G|---------2------------|
D|-2-----------2--------|
A|-3---2-------2--------|
E|-----3----------------|

E|-3---3---3---3--------|
B|-3---3---3---3--------|
G|-------------2--------|
D|-2-------2------------|
A|-3---2---2------------|
E|-----3----------------| x 3

after the 2.bridge:


E|-3---3---3---3--------|
B|-3---3---3---3--------|
G|---------2------------|
D|-2-----------2--------|
A|-3---2-------2--------|
E|-----3----------------|

E|-3---3---3---3--------|
B|-3---3---3---3--------|
G|-------------2--------|
D|-2-------2------------|
A|-3---2---2------------|

E|-----3----------------|

last.Bridge

E|-3---3---3---3--------|
B|-3---3---3---3--------|
G|---------2------------|
D|-2-----------2--------|
A|-3---2-------2--------|
E|-----3----------------| x 1

E|-3---3---3---3--------|
B|-3---3---3---3--------|
G|-------------2--------|
D|-2-------2------------|
A|-3---2---2------------|
E|-----3----------------|x 5

and ends up in

E|-3-|
B|-3-|
G|---|
D|---|
A|-2-|
E|-3-|

SMILE ACCORDS

INTRO:
F#5 F#5 E5 A5

VERSE 1:
F#5

F#5 E5 A5

you know that I'm a crazy bitch


A5
I do what I want when I feel like it
F#5

F#5 E5 A5

all I wonna do is lose control


F#5

F#5 E5 A5

but you don't really give a shit


A5
you don't let it go let it go with it
F#5

F#5 E5 A5

cause you're fucking crazy rock'n'roll

PRE CHORUS:
F#5

E5 A5

you-uo said hey what's your name


F#5

E5

A5

it took 1 look and now I'm not the same


F#5

E5 A5

yeah you said yeah and since that day


F#5

E5

A5

you stole my heart and you're the one to blame

CHORUS:
D
and that's why

F#m

I smile it's been a while


E

since everyday and everything has felt this right


A

F#m

and now you're turning all around


E

and sudenly you're all I need the reason why


A F#m

I I I I smile I I smile

F#5

F#5 E5 A5

Last night I blacked out I think


A5
What did you, what did you put in my drink
F#5

F#5 E5 A5

I remember making out but then


F#5

F#5 E5 A5

I woke up with a new tattoo


A5
your name was on me and my name was on you
F#5

F#5 E5 A5

I will do it all over again

PRE CHORUS:
F#5

E5 A5

you-uo said hey what's your name


F#5

E5

A5

it took 1 look and now I'm not the same


F#5

E5 A5

yeah you said yeah and since that day


F#5

E5

A5

you stole my heart and you're the one to blame

CHORUS:
D
and that's why
A

F#m

I smile it's been a while


E

since everyday and everything has felt this right


A

F#m

and now you're turning all around


E

and sudenly you're all I need the reason why


A F#m

I I I I smile I I
D

A F#m

the reason why I I I I smile I I

BRIDGE:
D
You know that I'm a crazy bitch
A
I do what I want when I feel like it
F#m

All I wanna do is lose control

D
You know that I'm a crazy bitch
A
I do what I want when I feel like it
F#m

All I wanna do is lose control

CHORUS:
D
and that's why
A

F#m

I smile it's been a while


E

since everyday and everything has felt this right


A

F#m

and now you're turning all around


E

and sudenly you're all I need the reason why


A F#m

I I I I smile I I the reason the reason


D

A F#m

why I I I I smile I I the reason


D

A F#m E

why I I I smile I I

WORLD BEHIND MY WALL TOKIO HOTEL

verse 1:
C
Its raining today, the blinds are shut.

C
Its always the same.
Bbm
I tried all the games that they play,
C
but they made me insane.
C
Life on TV its random,
C
it means nothing to me.
Bbm
Im writing down what I cannot see
C
wanna wake up in a dream.

Chorus:
C
Oh, oh.
Am
Theyre telling me its beautiful.
F
I believe them, but will I ever know
C
the world behind my wall.
C
Oh, oh.
Am
The sun will shine like never before.
F

One day I will be ready to go,


C
see the world behind my wall.

verse 2:
C
Trains in the sky are travelling
C
through fragments of time.
Bbm
Theyre taking me to parts of my mind
C Am
that no one can find.
C
Im ready to fall.
G

Am

Im ready to crawl on my knees to know it all.


C
Im ready to heal.
G
Im ready to feel.

C
Oh, oh.
Am
Theyre telling me its beautiful.
F
I believe them, but will I ever know
C

the world behind my wall.


C
Oh, oh.
Am
The sun will shine like never before.
F
One day I will be ready to go
C
see the world behind my wall.
(F C Am)
See the world behind my wall x3

C
Im ready to fall.
G

Am

Im ready to crawl on my knees to know it all.


C
Im ready to heal.
G
Im ready to feel.

Bridge:
C
Take me there! (oh, oh.)
Am
Take me there!
F

Take me there!

Oh, oh.
Am
Theyre telling me its beautiful.
F
I believe them, but will I ever know
C
the world behind my wall.

IN YOUR SHADOW I CAN SHINE TOKIO HOTEL

Tuning: drop D (D-A-D-G-B-E)

Intro:
e|--------------|--------------|--------------|--------------|
b|--------------|--------------|--------------|--------------|
g|------3-----3-|------3-----3-|------3-----3-|------3-----3-|
d|------3-----3-|------3-----3-|------3-----3-|------3-----3-|
a|--------------|--------------|--1-1---1-1---|--1-1---1-1---|
d|--5-5---5-5---|--1-1---1-1---|--------------|--------------| x2

Verse 1:
e|--------------|--------------|--------------|--------------|
b|--------------|--------------|--------------|--------------|
g|------3-----3-|------3-----3-|------3-----3-|------3-----3-|
d|------3-----3-|------3-----3-|------3-----3-|------3-----3-|
a|--------------|--------------|--1-1---1-1---|--1-1---1-1---|
d|--5-5---5-5---|--1-1---1-1---|--------------|--------------| x4
I
I cant

Hate

my

life

out of...

e|--------------|--------------|--------------|--------------|
b|--------------|--------------|--------------|--------------|
g|------3-----3-|------3-----3-|------3-----3-|------3-----3-|
d|------3-----3-|------3-----3-|------3-----3-|------3-----3-|
a|--------------|--------------|--------------|--5-5---5-5---|
d|--1-1---1-1---|--3-3---3-3---|--5-5---5-5---|--------------|
touch
sign

out of

time

just get lost without a

as long as

e|--------------|--------------|
b|--------------|--------------|
g|------3-----3-|------3-----3-|
d|------3-----3-|------3-----3-|
a|--------------|--------------|
d|--1-1---1-1---|--3-3---3-3---|
youll stay by my side in your shadow I can

e|--------------|--------------|--------------|--------------|
b|--------------|--------------|--------------|--------------|
g|------3-----3-|------3-----3-|------3-----3-|------3-----3-|
d|------3-----3-|------3-----3-|------3-----3-|------3-----3-|
a|--------------|--------------|--------------|--------------|
d|--5-5---5-5---|--1-1---1-1---|--3-3---3-3---|--0-0---0-0---|
shine
in your shadow

e|--------------|--------------|
b|--------------|--------------|
g|------3-----3-|------3-----3-|
d|------3-----3-|------3-----3-|

in your shadow i can shine

a|--------------|--------------|
d|--5-5---5-5---|--1-1---1-1---|
i can shine

shine...

Verse 2:
e|--------------|--------------|--------------|--------------|
b|--------------|--------------|--------------|--------------|
g|------3-----3-|------3-----3-|------3-----3-|------3-----3-|
d|------3-----3-|------3-----3-|------3-----3-|------3-----3-|
a|--------------|--------------|--1-1---1-1---|--1-1---1-1---|
d|--5-5---5-5---|--1-1---1-1---|--------------|--------------| x2
you see my soul

e|--------------|--------------|--------------|--------------|
b|--------------|--------------|--------------|--------------|
g|------3-----3-|------3-----3-|------3-----3-|------3-----3-|
d|------3-----3-|------3-----3-|------3-----3-|------3-----3-|
a|--------------|--------------|--------------|--5-5---5-5---|
d|--1-1---1-1---|--3-3---3-3---|--5-5---5-5---|--------------|
into the dark..

e|--------------|--------------|
b|--------------|--------------|
g|------3-----3-|------3-----3-|
d|------3-----3-|------3-----3-|
a|--------------|--------------|
d|--1-1---1-1---|--3-3---3-3---|
youre the sun and Im the moon

in your shadow i can

e|--------------|--------------|--------------|--------------|
b|--------------|--------------|--------------|--------------|
g|------3-----3-|------3-----3-|------3-----3-|------3-----3-|
d|------3-----3-|------3-----3-|------3-----3-|------3-----3-|
a|--------------|--------------|--------------|--------------|
d|--5-5---5-5---|--1-1---1-1---|--3-3---3-3---|--0-0---0-0---|
shine

in your shadow i can shine

in your shadow

e|--------------|--------------|--------------|--------------|----------------|
b|--------------|--------------|--------------|--------------|----------------|
g|------3-----3-|------3-----3-|--------------|--------------|----------------|
d|------3-----3-|------3-----3-|------3-----3-|------3-----3-|------3---------|
a|--------------|--------------|------3-----3-|------3-----3-|------3---------|
d|--5-5---5-5---|--1-1---1-1---|--3-3---3-3---|--3-3---3-3---|--3-3-----------|
i can shine

shine....

play till the end


e|---------------|---------------|---------------|---------------|
b|---------------|---------------|---------------|---------------|
g|---------------|---------------|---------------|---------------|
d|6-6-6-6-6-6-6-6|2-2-2-2-2-2-2-2|4-4-4-4-4-4-4-4|4-4-4-4-4-4-4-4|
a|4-4-4-4-4-4-4-4|0-0-0-0-0-0-0-0|2-2-2-2-2-2-2-2|2-2-2-2-2-2-2-2|
d|---------------|---------------|---------------|---------------|

NAKED AVRIL LAVIGNE

Intro: Em G Cmaj7

Em G

Cmaj7

I wake up in the morning, put on my face


Em

Cmaj7

Em

The one that's gonna get me, through another day


Em G

Cmaj7

Asus2

Doesn't really matter, how I feel inside

This life is like a game sometimes

Em G

Cmaj7

Em

Then you came around me, the walls just disappeared


Em G

Cmaj7

Nothing to surround me, keep me from my


Em G

Cmaj7

Asus2

Fears, I'm unprotected, see how I've opened up


D
Oh you've made me trust

Cadd9

G/B Asus4

Cause I've never felt like this before


Em

I'm naked around you does it show


G

Cadd9

G/B

Asus4

You see right through me and I can't hide


Em

I'm naked around you and it feels so right

Em G Cmaj7

Em

Cmaj7

I'm trying to remember why I was


Em

Cmaj7

Afraid to be myself and let the covers fall


Em

Cmaj7

Away I guess I never had someone like you


Asus2

To help me fit in my skin

Cadd9

G/B Asus4

I've never felt like this before


Em

I'm naked around you does it show


G

Cadd9

G/B

Asus4

You see right through me and I can't hide


Em

I'm naked around you and it feels so right

Em

C
I'm naked

Em

Oh oh

C
yeah

Em

Yeah I'm naked


Em

does it show

ohh ohh

Yeah yeah yeah yeah yeah yeah yeah yeah!

G Cadd9
Oh oh

G/B Asus4

Em

I'm naked around you, does it show

Cadd9 G/B

Asus4

I'm so naked around you


Em

And I can't hide, you're gonna, you're gonna see right


G Cadd9 G/B
Through,

Asus4

Em C

you're gonna see right through, oh yeah yeah

Cadd9 G/B

Asus4

I'm so naked around you


Em

And I can't hide, you're gonna see right through baby

IN DIE NACHT TOKIO HOTEL

Intro
e|---------------------------------------------------------------------------|
B|---------------------------------------------------------------------------|
G|-7/9-9-9/11-11-11-11-5/7-7-7/9-9-9-9-3/5-5-5/7-7-7-7-2-2-14-14-14-14-------|
D|-0-0-0-0--0--0--0--0-0-0-0-0-0-0-0-0-0-0-0-0-0-0-0-0-0-0--0--0--0--0-------|
A|---------------------------------------------------------------------------|
E|---------------------------------------------------------------------------|

Verse
e|---------------------------------------------------------------------------|
B|---------------------------------------------------------------------------|
G|-7/9-9-9/11-11-11-11-5/7-7-7/9-9-9-9-3/5-5-5/7-7-7-7-2-2-14-14-14-14-------|
D|-0-0-0-0--0--0--0--0-0-0-0-0-0-0-0-0-0-0-0-0-0-0-0-0-0-0--0--0--0--0-------|3
A|---------------------------------------------------------------------------|

E|---------------------------------------------------------------------------|

e|---------------------------------------------------------------------------|
B|---------------------------------------------------------------------------|
G|-7/9-9-9/11-11-11-11-5/7-7-7/9-9-9-9-3/5-5-5/7-7-7-7-2-2-2-2-2-2-----------|
D|-0-0-0-0--0--0--0--0-0-0-0-0-0-0-0-0-0-0-0-0-0-0-0-0-0-0-0-0-0-0-----------|
A|---------------------------------------------------------------------------|
E|---------------------------------------------------------------------------|

Chorus
e|---------333333------------------------------------------------------------|
B|-333333--000000-33-1111--------------------------------------------------|
G|-000000--000000--22-2222------7/9-9-9/11-11-11-11-------------------------|
D|-222222--000000--22-2222-------0-0-0-0--0--0--0--0-------------------------|
A|-333333--222222------------------------------------------------------------|
E|---------333333------------------------------------------------------------|

e|---------333333------------------------------------------------------------|
B|-333333--000000-33-1111---------------------------------------------------|
G|-000000--000000--22-2222--------------------------------------------------|
D|-222222--000000--22-2222---------------------------------------------------|
A|-333333--222222------------------------------------------------------------|
E|---------333333------------------------------------------------------------|

e|---------------------------------------------------------------------------|
B|---------------------------------------------------------------------------|
G|-7/9-9-9/11-11-11-11-5/7-7-7/9-9-9-9-3/5-5-5/7-7-7-7-2-2-14-14-14-14-------|
D|-0-0-0-0--0--0--0--0-0-0-0-0-0-0-0-0-0-0-0-0-0-0-0-0-0-0--0--0--0--0-------|
A|---------------------------------------------------------------------------|
E|---------------------------------------------------------------------------|

Verse
e|---------------------------------------------------------------------------|
B|---------------------------------------------------------------------------|
G|-7/9-9-9/11-11-11-11-5/7-7-7/9-9-9-9-3/5-5-5/7-7-7-7-2-2-14-14-14-14-------|
D|-0-0-0-0--0--0--0--0-0-0-0-0-0-0-0-0-0-0-0-0-0-0-0-0-0-0--0--0--0--0-------|
A|---------------------------------------------------------------------------|
E|---------------------------------------------------------------------------|

e|---------------------------------------------------------------------------|
B|---------------------------------------------------------------------------|
G|-7/9-9-9/11-11-11-11-5/7-7-7/9-9-9-9-3/5-5-5/7-7-7-7-2-2-2-2-2-2-----------|
D|-0-0-0-0--0--0--0--0-0-0-0-0-0-0-0-0-0-0-0-0-0-0-0-0-0-0-0-0-0-0-----------|
A|---------------------------------------------------------------------------|
E|---------------------------------------------------------------------------|

Chorus
e|---------333333------------------------------------------------------------|
B|-333333--000000-33-1111--------------------------------------------------|
G|-000000--000000--22-2222------7/9-9-9/11-11-11-11-------------------------|
D|-222222--000000--22-2222-------0-0-0-0--0--0--0--0-------------------------|
A|-333333--222222------------------------------------------------------------|
E|---------333333------------------------------------------------------------|

e|---------333333----------------2/3-3--22222--2/3-3--22222------------------|
B|-333333--000000-33-1111-------3---3--33333--3---3--33333------------------|
G|-000000--000000--22-2222------2---2--22222--2---2--22222------------------|
D|-222222--000000--22-2222-------0---0--00000--0---0--00000------------------|
A|-333333--222222------------------------------------------------------------|
E|---------333333------------------------------------------------------------|

Bridge
e|---------333333----------3-------------------------------------------------|
B|-333333--000000--333333--0-------------------------------------------------|
G|-000000--000000--000000--0-------------------------------------------------|
D|-222222--000000--222222--0-------------------------------------------------|
A|-333333--222222--333333--2-------------------------------------------------|
E|---------333333----------3-------------------------------------------------|

e|---------------------------------------------------------------------------|
B|---------------------------------------------------------------------------|
G|-7/9-9-9/11-11-11-11-5/7-7-7/9-9-9-9-3/5-5-5/7-7-7-7-2-2-2-2-2-2-----------|
D|-0-0-0-0--0--0--0--0-0-0-0-0-0-0-0-0-0-0-0-0-0-0-0-0-0-0-0-0-0-0-----------|
A|---------------------------------------------------------------------------|
E|---------------------------------------------------------------------------|

e|---------333333------------------------------------------------------------|
B|-333333--000000-33-1111--------------------------------------------------|
G|-000000--000000--22-2222------7/9-9-9/11-11-11-11-------------------------|
D|-222222--000000--22-2222-------0-0-0-0--0--0--0--0-------------------------|
A|-333333--222222------------------------------------------------------------|
E|---------333333------------------------------------------------------------|

Chorus
e|---------333333------------------------------------------------------------|
B|-333333--000000-33-1111--------------------------------------------------|
G|-000000--000000--22-2222------7/9-9-9/11-11-11-11-------------------------|
D|-222222--000000--22-2222-------0-0-0-0--0--0--0--0-------------------------|
A|-333333--222222------------------------------------------------------------|
E|---------333333------------------------------------------------------------|

e|---------333333------------------------------------------------------------|
B|-333333--000000-33-1111---------------------------------------------------|
G|-000000--000000--22-2222--------------------------------------------------|
D|-222222--000000--22-2222---------------------------------------------------|
A|-333333--222222------------------------------------------------------------|
E|---------333333------------------------------------------------------------|

e|---------------------------------------------------------------------------|
B|---------------------------------------------------------------------------|
G|-7/9-9-9/11-11-11-11--7/9-9-9/11-11-11-11----------------------------------|
D|-0-0-0-0--0--0--0--0--0-0-0-0--0--0--0--0----------------------------------|
A|---------------------------------------------------------------------------|
E|---------------------------------------------------------------------------|

e|---------------------------------------------------------------------------|
B|---------------------------------------------------------------------------|
G|-7/9-9-9/11-11-11-11-5/7-7-7/9-9-9-9-3/5-5-5/7-7-7-7-2---------------------|
D|-0-0-0-0--0--0--0--0-0-0-0-0-0-0-0-0-0-0-0-0-0-0-0-0-0---------------------|
A|---------------------------------------------------------------------------|
E|---------------------------------------------------------------------------|

Centres d'intérêt liés