Vous êtes sur la page 1sur 3

Afinao

Afinar consiste em colocar as notas em suas devidas alturas na escala musical.


Sempre antes de tocar seu instrumento voc deve conferir a afinao, para
o iniciante que ainda no tem o ouvido treinado quase sempre a afinao
se torna uma tarefa difcil. Portanto existem aparelhos que foram feitos
para auxliar a tarefa de afinao.
Mas o estudente deve tentar afinar seu instrumento usando as tcnicas
mais tradionais, tambm sempre bom pedir ajuda a algum que j tem
um pouco mais de experincia.
Ao tocar as cordas livres, a partir da mais grave, (de cima para baixo) ns
emitimos os sons das seguintes notas:
MI |---------------------------------------------LA |---------------------------------------------RE |---------------------------------------------SOL|---------------------------------------------SI |---------------------------------------------MI |----------------------------------------------

6
5
4
3
2
1

Temos que dispor de um Diapaso que emite a nota LA (440 Hertz).


Podemos tambm usar o tom de discar do seu telefone produz uma vibrao
que corresponde nota L.
Ou at mesmo usar como referncia um teclado ou um outro instrumento j
afinado. Hoje em dia j existem at softwares que ajudam na tarefa de
afinao.
Pegue aqui um arquivo WAV com a Nota La da 5 casa 1 corda
L

Afinao Tradicional
1 corda Mi 5 casa afinada com o diapason emite a nota L
2 corda Si apertada na 5 casa emite a nota Mi, compara-se com a 1 corda
solta, Mi.
Note a corda Sol pressionamos a quarta casa nota Si, compara-se com a
segunda corda solta a corda Si j afinada.
4 corda Re apertada na 5 casa emite a nota Sol, compara-se com a 3 corda
solta, Sol.
5 corda La apertada na 5 casa emite a nota Re, compara-se com a 4 corda

solta, Re.
6 corda Mi apertada na 5 casa emite a nota La, compara-se com a 5 corda
solta, La.
Observe o grfico da tablatura da Afinao Tradicional
Mi :|---0-------------------|
Si :|---5---0---------------|
Sol:|-------4---0-----------|
Re :|-----------5---0-------|
La :|---------------5---0---|
Mi :|-------------------5---|

Contudo este mtodo pode ser um pouco difcil para o iniciante, tente
usar mais notas na comparao isso pode tornar a afinao mais fcil
Vamos usar os mesmos passos da afinao tradicional, s que usaremos mais
notas na comparao.
1 Passo
A 1 corda Mi 5 casa afinada com o diapason deve emitir a nota L

2 Passo
Afinao da corda 2 (nota Si), compare as notas da 1 corda afinada
com as notas da segunda corda, veja:
e:-------------------0--2--3--2--0---|
B:--5--7--8--7--5--------------------|
G:-----------------------------------|
D:-----------------------------------|
A:-----------------------------------|
E:-----------------------------------|

3 Passo
Afinao da corda 3 (nota Sol), compare as notas da 2 corda afinada
com as notas da terceira corda, veja:
Lembrando que a afinao da 3 corda (Sol) apertada na 4 casa
e:-----------------------------------|
B:--------------------0--2--3--2--0--|
G:---4--6--7--6--4-------------------|
D:-----------------------------------|
A:-----------------------------------|
E:-----------------------------------|

4 Passo
Afinao da corda 4 (nota Re), compare as notas da 3 corda afinada
com as notas da quarta corda, veja:
e:-----------------------------------|
B:-----------------------------------|
G:-------------------0--2--3--2--0---|
D:--5--7--8--7--5--------------------|
A:-----------------------------------|
E:-----------------------------------|

5 Passo
Afinao da corda 5 (nota La), compare as notas da 4 corda afinada
com as notas da quinta corda, veja:
e:-----------------------------------|
B:-----------------------------------|
G:-----------------------------------|
D:-------------------0--2--3--2--0---|
A:--5--7--8--7--5--------------------|
E:-----------------------------------|

6 Passo
Afinao da corda 6 (nota Mi), compare as notas da 5 corda afinada
com as notas da sexta corda, veja:
e:-----------------------------------|
B:-----------------------------------|
G:-----------------------------------|
D:-----------------------------------|
A:-------------------0--2--3--2--0---|
E:--5--7--8--7--5--------------------|

Ou podemos at mesmo coparar a 6 corda com a 1, elas tem as mesmas


notas a diferna que a 6 corda Mi mais grave do que a 1 corda Mi.
e:-------------------0--2--3--2--0---|
B:-----------------------------------|
G:-----------------------------------|
D:-----------------------------------|
A:-----------------------------------|
E:--5--7--8--7--5--------------------|