Vous êtes sur la page 1sur 2

ZORBA’S DANCE (Zorba The Greek) - Mikis Theodorakis

G G G G G G

||-------|-------4-|-5------4-|-5----7-5-4--|-5--------4-|-5----2-|-
||-------|---------|----------|-------------|------------|--------|-
||-------|---------|----------|-------------|------------|--------|-
||-------|---------|----------|-------------|------------|--------|-

Am Am G D G
-|3------2-|-3------3-2-0--|-2-----2-0-3-2-|-0----2-0-3-2-0-|------|-
-|---------|---------------|---------------|----------------|-3----|-
-|---------|---------------|---------------|----------------|------|-
-|---------|---------------|---------------|----------------|------|-

G G G G
-|---------||-4-5-5-5-5-5-5-5-|-5-5-5-5-5-5-5-5-|-4-5-5-5-5-5-5-5-|-
-|---------||-6-7-7-7-7-7-7-7-|-7-7-7-7-7-7-7-7-|-6-7-7-7-7-7-7-7-|-
-|---------||-----------------|-----------------|-----------------|-
-|---------||-----------------|-----------------|-----------------|-

G G G
-|-5-5-5-5-5-5-5-7-5-4-|-4-5-5-5-5-5-5-5-|-5-5-5-5-5-5-5-5-|-
-|-7-7-7-7-7-7---------|-6-7-7-7-7-7-7-7-|-7-7-7-7-7-7-7-7-|-
-|---------------------|-----------------|-----------------|-
-|---------------------|-----------------|-----------------|-

D D D
-|-2-3-3-3-3-3-3-3-|-3-3-3-3-3-3-3-5-3-2-|-2-3-3-3-3-3-3-3-|-
-|-4-5-5-5-5-5-5-5-|-5-5-5-5-5-5---------|-4-5-5-5-5-5-5-5-|-
-|-----------------|---------------------|-----------------|-
-|-----------------|---------------------|-----------------|-

D G G
-|-3-3-3-3-3-3-3-3-|-4-5-5-5-5-5-5-5-|-5-5-5-5-5-5-5-7-5-4-|-
-|-5-5-5-5-5-5-5-5-|-6-7-7-7-7-7-7-7-|-7-7-7-7-7-7---------|-
-|-----------------|-----------------|---------------------|-
-|-----------------|-----------------|---------------------|-

D D G
-|-2-3-3-3-3-3-3-3-|-3-3-3-3-3-3-3-5-3-2-|-4-5-5-5-5-5-5-5-|-
-|-4-5-5-5-5-5-5-5-|-5-5-5-5-5-5---------|-6-7-7-7-7-7-7-7-|-
-|-----------------|---------------------|-----------------|-
-|-----------------|---------------------|-----------------|-

G G G G
-4-5-5-5-5-5-5-5-|-4-5-5-5-5-5-5-5-|-5-5-5-5-5-5-5-5-|-4-5-5-5-5-5-5-5|-
-6-7-7-7-7-7-7-7-|-6-7-7-7-7-7-7-7-|-7-7-7-7-7-7-7-7-|-6-7-7-7-7-7-7-7|-
-----------------|-----------------|-----------------|----------------|-
-----------------|-----------------|-----------------|----------------|-

G
-5-5-5-5-5-5-10---||--
-7-7-7-7-7-7--7---||--
--------------7---||--
--------------7---||--
RHYTHM PART:

Pluck: 4 ↓ 3 ↓ on each chord.