Vous êtes sur la page 1sur 2

ROSANNA (TOTO)

INTRO
+ + + + + + + + + + + + + + + + +
G----|----------------|----------------|----------------|----------------|
D----|----------------|----------------|----------------|----------------|
A----|----------------|----------------|----------------|----------------|
E—-1/|3- 3 -3- 3 -3- -|3- 3 -3- 3 -3- -|3- 3 -3- 3 -3- -|3- 3 -3- 3 -3-1-|

VERSE 1
+ + + + + + + + + + + + + + + +
G|----------------|----------------|----------------|----------------|
D|----------------|----------------|----------------|----------------|
A|----------------|----------------|----------------|----------------|
E|3- 3 -3------- -|3—-3 -3------- -|3—-3 –3------- -|1—-1 -1-------1-|

+ + + + + + + + + + + +
G|----------------|----------------|----------------|
D|----------------|----------------|----------------|
A|----------------|----------------|----------------|
E|0- 0 -0-------3-|3- 3 -3-------1-|3- 3 -3-----8-8\|

VERSE 2
+ + + + + + + + + + + + + + + +
G|----------------|----------------|----------------|----------------|
D|----------------|----------------|----------------|----------------|
A|----------------|----------------|--------------3-|6- 6 -6- 6 -6- -|
E|1- 1 -1- 1 -1- -|1—-1 -1- 1 -1- -|1—-1 -1- 1 -35--|----------------|

+ + + +
G|----------------|
D|----------------|
A|5- 5 -5- 5 -----|
E|------------5- -|

PRE CHORUS
+ + + + + + + + + + + +
G|----------------|----------------|----------------|
D|----------------|----------------|----------------|
A|----------------|----------------|----------------|
E|3-3-3-3-3-3-3-3-|5-66--6-6-6-6-66|--66 -11--1-1-1-|

+ + + + + + + + + + + + + +
G|----------------|----------------|----------------|-------|
D|----------------|----------------|----------------|-------|
A|----------------|--------------66|----------------|-------|
E|3-3-3-3-3-3-3-3-|5-66 -6-6-6-6---|--66-\11--------|-1 ----|

CHORUS
+ + 3+ + + + + + + + 3+ + + + + +
G|----------------|----------------|----------------|----------------|
D|----------------|----------------|----------------|----------------|
A|3—-3 1-3X133 -66|----------------|3--3 1-3X133 -66|----------------|
E|----------------|--66-\11----1-3-|----------------|--66-\11----1-3-|

+ + 3+ + + + + + + + 3+ + + + + +
G|----------------|----------------|----------------|----------------|--------|
D|----------------|----------------|----------------|----------------|--------|
A|3—-3 1-3X133 -66|----------------|3--3 1-3X133 -66|----------------|--------|
E|----------------|--66-\11----1-3-|----------------|--66-\11--------|--------|
VERSE 1 + 2

PRE CHORUS

CHORUS

STRUMENTALE
+ + + + + + + + + + + + + + + +
G|----------------|----------------|----------------|----------------|
D|----------------|----------------|----------------|----------------|
A|----------------|------------10--|--------------5-|--------------8-|
E|3- 3 -3- 3 -3- -|3- 3 -3- 3 ---10|3- 3 -3- 3 -7---|1- 1 -1- 1 -8---|

+ + + + + + + + + + + + + + + +
G|----------------|----------------|----------------|----------------|
D|----------------|----------------|----------------|----------------|
A|7- 7 -7- 7 -7---|----------------|----------------|----------------|
E|--------------0-|3- 3 -3- 3 -3- -|3- 3 -3- 3 -8-8-|-|

VERSE 2

PRE CHORUS

CHORUS x2

OUTRO
+ + + + + + + + + + + + + + + +
G|----------------|----------------|----------------|----------------|
D|----------------|----------------|----------------|----------------|
A|----------------|----------------|----------------|----------------|
E|3- 3 -3- 3 -3-1-|3- 3 -3- 3 -3-1-|3- 3 -3- 3 -3-1-|3- 3 -3- 3 -1-1-|

+ + + + + + + + + + + + + + + +
G|----------------|----------------|----------------|----------------|
D|----------------|----------------|------------53--|----------------|
A|----------------|----------------|--------------5-|----------------|
E|3- 3 -3- 3 -3- -|3- 3 -3- 3 -3- -|3- 3 -3- 3 -----|3- 3 -3- 3 -3-3-|

+ + + + + + + + + + + + + + + +
G|----------------|----------------|----------------|----------------|
D|----------------|----------3-5---|----------------|--------------5-|
A|--------------5-|--------------5-|----------------|----------------|
E|3- 3 -3- 3 -3---|3- 3 -3- -------|3- 3 -3- 3 -3-1-|3- 3 -3- 3 -3---|

+ + + + + + + + + + + + + + + +
G|----------------|----------------|----------------|----------------|
D|---------5 -53--|----------------|----------------|------------3-5X|
A|--------------5-|----------------|----------------|----------------|
E|3- 3 -3---------|3- 3 -3- 3 -3-1-|3- 3 -3- 3 -1-2-|3- 3 -3- 3 -----|

+ + + + + + + + + + + + + + + +
G|----------------|----------------|----------------|----------------|
D|----------------|----------------|----------------|----------------|
A|----------------|----------------|----------------|----------------|
E|3- 3 -3- 3 -3-1-|3- 3 -3- 3 -3-1-|3- 3 -3- 3 -3-1-|3- 3 -3- 3 -1-1-|