Vous êtes sur la page 1sur 4

Op 114, Ventiquattro Preludi (24 Preludes) - Ferdinando Carulli (1770-1841)

No 12 - Prelude in D Minor

Editions used - N Simrock, 1919 - Stich und Druck von CG Roder GmbH Leipzig
Alvaro Company - Edizioni Suvini Zerboni SpA Milano, 1973

MIDI: http://www.classtab.org/carulli_op114_no12_prelude_in_dm.mid

original tab by Greg Motlasz - retabbed by Weed, weed@wussu.com, 17 April 2013

see below the tab for Right Hand Fingerings and Variations, Notes and Legend

tuning: EADGBe key: Dm time: 4/4 speed: (quarter note) 152 bpm

Presto _3_ _3_ _3_ _3_ _3_ _3_ _3_ _3_ _3_ _3_
0 | | | | | | | | | | | | | | | | | | | | | | | | | | | | | | | |
e|-------------------------|---------------3-----3---|---1-----1-----5-----5---|
B|---------------6-----6---|---5-----5-------5-----5-|-----3-----3-----6-----6-|
G|-----------------7-----7-|-----6-----6-------------|-------------------------|
D|-------------0=====0=====|-0=====0=====0=====0=====|-0=====0=====0=====0=====|
A|-------------------------|-------------------------|-------------------------|
E|-------------------------|-------------------------|-------------------------|
mp 3 4 3 4 1 3 1 3 1 2
< < < < < < < < < < < < <

CI__________
3 | . . | . . | . . | . . | . . | . . | . . | . . | . . | . . | . . | . .
e|---3-----3-----1-----1---|---0-----0-----5-----5---|---6-----6-----3-----3---|
B|-----5-----5-----3-----3-|-----2-----2-----6-----6-|-----8-----8-----5-----5-|
G|-0=====0=====1=====1=====|-2=====------------------|-------------------------|
D|-------------------------|-------------0=====0=====|-0=====0=====0=====0=====|
A|-------------------------|-------0=====------------|-------------------------|
E|-------------------------|-------------------------|-------------------------|
1 3 3 2 3 1 2 1 3 1 3
< < < < < < < < < < < < < mf

CIII________ CIII_______ CI__________


6 | . . | . . | . . | . . | . . | . . | . . | . . | . . | | . . | . .
e|---5-----5---------------|-------------------------|---------------1-----1---|
B|-----6-----6---3-----3---|---5-----5-----2-----2---|---3-------------1-----1-|
G|-----------------2-----2-|-----3-----3-----0-----0-|-------------2=====2=====|
D|-0=====0=====3=====3=====|-5=====5=====2=====2=====|-----3-------------------|
A|-------------------------|-------------------------|-5=====5=====------------|
E|-------------------------|-------------------------|-------------------------|
1 2 3 4 2 3 4 1 1 2 3 2
mp < < < < < < < < > > > > > > > > > mf

CI__________CII_________ CIII____________________
9 | . . | . . | . . | . . | . . | . . | . . | . . | . . | . . | . . | . .
e|---0-----0-----3-----3---|---1-----1-----2-----2---|---3-----3-----6-----3---|
B|-----1-----1-----1-----1-|-----1-----1-----3-----3-|-----3-----3-----3-----3-|
G|-0=====0=====3=====3=====|-2=====2=====5=====5=====|-3=====3=====------3=====|
D|-------------------------|-------------------------|-------------5=====------|
A|-------------------------|-------------------------|-------------------------|
E|-------------------------|-------------------------|-------------------------|
1 3 4 1 2 4 2 3 4
< < < < < < < < < < < < < < < < < < <
CI____ CI______________________
12 | . . | . | . . | . . | . . | . . | . . | . . | . . | . . | . . | . .
e|---1---0==---------------|---------------1-----1---|---0-----0-----3-----3---|
B|-----1---------4-----4---|---3-----3-------3-----3-|-----1-----1-----5-----5-|
G|-2=====0==-------5-----5-|-----3-----3-------------|-------------------------|
D|-------------------------|-------------------------|-------------------------|
A|-------------0=====0=====|-1=====1=====2=====2=====|-3=====3=====4=====4=====|
E|-------------------------|-------------------------|-------------------------|
2 2 3 1 4 3 2 1 4 3 1 2 1 4
> > > > p > > > > > > > > > > > > > > > > > > > >

15 | . . | . . | . . | . . | . . | . | . . | . . | . . | . . | . . | . .
e|---1-----1-----4-----4---|---5-----------5-----5---|---6-----6-----3-----3---|
B|-----3-----3-----3-----3-|-----2-----------6-----6-|-----8-----8-----5-----5-|
G|-------------------------|-------------------------|-------------------------|
D|-0=====0=====------------|-------------0=====0=====|-0=====0=====0=====0=====|
A|-------------1=====1=====|-0=====0==---------------|-------------------------|
E|-------------------------|-------------------------|-------------------------|
1 3 1 4 3 4 1 1 2 1 3 1 3
> > > > > > > > > > > > > mf

CIII________ CIII________
18 | . . | . . | . . | . . | . . | . . | . . | . . | . . | . . | . . | . .
e|---5-----5---------------|-------------------------|---------------5-----5---|
B|-----6-----6---3-----3---|---5-----5-----2-----2---|---3-----3-------6-----6-|
G|-----------------2-----2-|-----3-----3-----0-----0-|-------------------------|
D|-0=====0=====3=====3=====|-5=====5=====2=====2=====|-----3-----3-0=====0=====|
A|-------------------------|-------------------------|-5=====5=====------------|
E|-------------------------|-------------------------|-------------------------|
1 2 3 4 2 3 4 1 2 4 1 2
mp < < < < < < > > > > > > mf

CIII________
21 | . . | . . | . . | . . | . . | . . | . . | . . | . . | . . | . . | . .
e|---6-----6-----3-----3---|---5-----5---------------|-------------------------|
B|-----8-----8-----5-----5-|-----6-----6---3-----3---|---4-----4-----2-----2---|
G|-------------------------|-----------------2-----2-|-----3-----3-----0-----0-|
D|-0=====0=====0=====0=====|-0=====0=====3=====3=====|-5=====5=====2=====2=====|
A|-------------------------|-------------------------|-------------------------|
E|-------------------------|-------------------------|-------------------------|
1 3 1 3 1 2 3 4 2 3 2 1 1 2
mp < < < < < < > > > > > >

24 | . . | . . | |
e|------------------------||
B|---3--------------------||
G|-----2---2--------------||
D|-0=====3===3------------||
A|-------------5=====-----||
E|------------------------||
3 1 2 1 2 4

*******************************************************************************

Right Hand Fingerings and Variations


------------------------------------

p m i p m i p a m p a m
0 | | | . . | . . 0 | | | . . | . .
e|-------------------------| e|-------------------------|
B|---------------6-----6---| B|---------------6-----6---|
G|-----------------7-----7-| G|-----------------7-----7-|
D|-------------0=====0=====| D|-------------0=====0=====|
A|-------------------------| A|-------------------------|
E|-------------------------| E|-------------------------|

p i m p i m p m a p m a
0 | | | . . | . . 0 | | | . . | . .
e|-------------------------| e|-------------------------|
B|-----------------6-----6-| B|-----------------6-----6-|
G|---------------7-----7---| G|---------------7-----7---|
D|-------------0=====0=====| D|-------------0=====0=====|
A|-------------------------| A|-------------------------|
E|-------------------------| E|-------------------------|

m m a a
p i p i p m m
0 | | | . | . 0 | | | . | .
e|-------------------------| e|-------------------------|
B|----------------6-----6--| B|----------------6-----6--|
G|----------------7-----7--| G|----------------7-----7--|
D|-------------0=====0=====| D|-------------0=====0=====|
A|-------------------------| A|-------------------------|
E|-------------------------| E|-------------------------|

p m i p m i p p a m p a m p
24 | . . | . . | | 24 | . . | . . | |
e|------------------------|| e|------------------------||
B|---3--------------------|| B|---3--------------------||
G|-----2---2--------------|| G|-----2---2--------------||
D|-0=====3===3------------|| D|-0=====3===3------------||
A|-------------5=====-----|| A|-------------5=====-----||
E|------------------------|| E|------------------------||

Notes
-----

Barres may be better played as patial rather than full barres.

Legend
------

right hand fingering above tab left hand fingering below tab
p - thumb 1 - index
i - index 2 - middle
m - middle 3 - ring
a - ring 4 - little

Presto - fast
mp - mezzopiano - medium soft
mf - mezzoforte - medium loud
p - piano - soft

< < < - crescendo - getting louder


> > > - decrescendo - getting softer
_3_ - triplet, three notes played in the time of two

= - note held

CI - barre on the 1st fret


CII - barre on the 2nd fret
CIII - barre on the 3rd fret

*******************************************************************************

more classical guitar tabs at http://www.classtab.org