Vous êtes sur la page 1sur 7

Dio - Holy Diver

1 - Introduo
-------------------------------------------------------------------------------------------------------------------------------------------------------------------------5-----5-----5-7-9--5-----5--5-7-8--3--5-----5--5-7-8--3-3-3-3-3-3-3-3-5-7--3-3-3-3--3-5-6--1--3-3-3-3--3-5-6--1---------------------------------------------------------

-------------------------------------------------------------------------------------------------------------------------------------------------------------------------5-3-5---5-----5-----5-7-9--5-----5--5-7-8--3--5-----5---3-1-3-\-3-3-3-3-3-3-3-5-7--3-3-3-3--3-5-6--1--3-3-3-3---------\-------------------------------------------------

--------------------------------------------------------------------------------------------------------------------------------------------------------------------------5-7-8--3--5-3-----3--5----------------------------------3-5-6--1--3-1-6---1--3------------------------------------------------4----------------------------------------

2 - Verso 1
-------------------------------------------------------------------------------------------------------------------------------------------------------------------------5-----5-----5-----5-----5-----5-----5-------5-----5-----3-3-3-3-3-3-3-3-3-3-3-3-3-3-3-3-3-3-3-3-3-6-3-3-3-3-3-3-------------------------------------------4-------------

-------------------------------------------------------------------------------------------------------------------------------------------------------------------------3-----3-----------------------------5-----5-----5-----5-1-1-1-1-1-1-6-----6-----6-----6-----3-3-3-3-3-3-3-3-3-3-------------4-4-4-4-4-4-4-4-4-4-4-4---------------------

---------------------------------------------------------

---------------------------------------------------------------------------------------------------------------------5-----5-----5----5-----5-----3-----3-----5-----5----3-3-3-3-3-3-3-3-3--6-3-3-3-3-3-3-1-1-1-1-1-1-3-3-3-3-3-3
--------------------4------------------------------------

---------------4-------------------------------------------------------4-------------------------------------------------------5-----------------------------------------5-----5---------3--5-----5-----5-7-9--5-----5-----8--3--3-3-3-3-3-3-6---1--3-3-3-3-3-3-3-5-7--3-3-3-3-3-3-6--1--------------4-------------------------------------------

-------------------------------------------------------------------------------------------------------------------------------------------------------------------------5-----5-----8--3--5--3--5-----5-------------------------3-3-3-3-3-3-6--1--3--1--3--\--3----------------------------------------------------\----------------------------

3 - Verso 2

-------------------------------------------------------------------------------------------------------------------------------------------------------------------------5-----5-----5-----5-----5-----5-----5-------5-----5-----3-3-3-3-3-3-3-3-3-3-3-3-3-3-3-3-3-3-3-3-3-6-3-3-3-3-3-3-------------------------------------------4-------------

-------------------------------------------------------------------------------------------------------------------------------------------------------------------------3-----3--------------------------3--5-----5-----5-----5-1-1-1-1-1-1-6-----6-----6-----6--1--3-3-3-3-3-3-3-3-3-3-------------4-4-4-4-4-4-4-4-4-4-------------------------

-----------------------------------------------------------------------------------------------------------------------------------------------------------------------------5-----5-----5----5-----5-----3-----3-----5-----5----3-3-3-3-3-3-3-3-3--6-3-3-3-3-3-3-1-1-1-1-1-1-3-3-3-3-3-3
--------------------4------------------------------------

---------------4--------------------------------------------------------4--------------------------------------------------------5------------------------------------------5-----5---------3--3-4-5-5-------------------------------3-3-3-3-3-3-6---1--1-2-3-3-------------------------------------------4--------------------------------------------

4 - refro
-------------------------------------------------------------------------------------------------------------------------------------------------------------------------5-5--3-3---------3--5-5--3-3-------3--5-5--3-3----------3-3--1-1--6-6--6-1--3-3--1-1--5--5-1--3-3--1-1--6-6---------------4-4--4--------------3--3--------------4-4-----

----------------------------------------------------------------------------------------------------------------------------------------------------------------------------3--5-5--3-3------------------------------------------6--1--3-3--1-1--6---------------------------------------4---------------4---------------------------------------

5 - Verso 3

-------------------------------------------------------------------------------------------------------------------------------------------------------------------------5-----5-----5-----5-----5-----5-----5-------5-----5-----3-3-3-3-3-3-3-3-3-3-3-3-3-3-3-3-3-3-3-3-3-6-3-3-3-3-3-3-------------------------------------------4-------------

-------------------------------------------------------------------------------------------------------------------------------------------------------------------------3-----3--------------------------3--5-----5-----5-----5-1-1-1-1-1-1-6-----6-----6-----6--1--3-3-3-3-3-3-3-3-3-3-------------4-4-4-4-4-4-4-4-4-4-------------------------

-----------------------------------------------------------------------------------------------------------------------------------------------------------------------------5-----5-----5----5-----5-----3-----3--------3--5----3-3-3-3-3-3-3-3-3--6-3-3-3-3-3-3-1-1-1-1-1-1-6--1--3-----------------------4-------------------------4----------

6 - solo
-----------------------------------------------------------------------------------------------------------------10/11\10p9-10p9--------8-7-5-5--------------------------10/11\10p9-10p9--------8-7-5-5---------8----8-8--7-7-7------------------10-8-8---------8-6-5\----10-8-8--7-7-7----------------------------------------------------------

------------------------------------------------------------------------------------------------------------------------------------------------------5(ha)--------------8-10-10--8---------------------------------------------------------10-9-8-6-8b-8----------------------------------------------------------------------------------------

-18b20-16-15----------------18-------18-16-15------------------------16-15-18-16-15----16-15----------16-15-16-15
---------------------------------------------------------------------------------------------------------------------------------------------------------------------------------------------------------------------------------

--------------------------------------------------------------------------------15----15-15\---8-9-8---11--------17-15-17-17b20r-----------17----------------8----8-7----------------------------------------------------------------------------------------------------------------------------------------------------------------------------

-------------------------------------------------------------------------------------8-9-8h9p8----8-9-8----------10-8-7------7-7-7-8-8-8/10------------10-------8-7-8-8---------10-8-------------------------------------------------------------------------------------------------------------------------------------------------------------

---------------------------------------------------------8-9-8------------9-8h9p8----8---------------------------

-------10-8-7-8-7---------10---8-7-8-7h8p7---------------------------------------------------------10-8-8------------------------------------------------------------------------------------------------------------------------

----------------------------------------------11-10-8----8-9-8h9p8----8---------9-8h9p8----8-11-8-9-8----------------------10---8-7-8-8---------10-----------------------------------------------------------------------------------------------------------------------------------------------------------------------------------------------

--------11-10-8------------------------------------------11-9-8---------11-9-8-11-9-8----9p8--------------------------------------------------10-----10-8p7--8-8---10-10-------------------------------------------------------------------------------------------------------------------------------------------------------------------------

---------------------------------------------------------8-8-11-11-11-9-9-9-8---------------------------------------------------------10-8-10b12-8---7h8p7---------------------------------------------------------------------------------------------------------------------------------------------------------------------------------------

7 - Base do solo
-------------------------------------------------------------------------------------------------------------------------------------------------------------------------3-5---8-5---5-5---8-5---8-7-3-5---8-5---3-5---8-5-------1-3---6-3---3-3---6-3---6-5-1-3---6-3---1-3---6-3---------------------------------------------------------------

-------------------------------------------------------------------------------------------------------------------------------------------------------------------------8-10-3-5---8-5---5-5---8-5---8-7------------------------6-8--1-3---6-3---3-3---6-3---6-5--6-----6-----6-----6-------------------------------------4-4-4-4-4-4-4-4-4-4---

-----------------------------------------------------------------------------------------------------------------------------------------------------------------------------3-----3-----3-----3-------------------------------------1-1-1-1-1-1-1-1-1-1-1-1-6-----6-----6-----6---------4-4-------------------------4-4-4-4-4-4-4-4-4-4-4-4-----

-------------------------------------------------------------------------------------------------------------------------------------------------------------------------5-----5-----8--7-----------------------------5--3--5----3-3-3-3-3-3-6--5-6-----6-----6-----6-----6-5-3--1--3---------------------4-4-4-4-4-4-4-4-4-4-4-4----------------

8 - Verso 4

-------------------------------------------------------------------------------------------------------------------------------------------------------------------------5-----5-----5-----5-----5-----5-----5-------5-----5-----3-3-3-3-3-3-3-3-3-3-3-3-3-3-3-3-3-3-3-3-3-6-3-3-3-3-3-3-------------------------------------------4-------------

-------------------------------------------------------------------------------------------------------------------------------------------------------------------------3-----3--------------------------3--5-----5-----5-----5-1-1-1-1-1-1-6-----6-----6-----6--1--3-3-3-3-3-3-3-3-3-3-------------4-4-4-4-4-4-4-4-4-4-------------------------

-----------------------------------------------------------------------------------------------------------------------------------------------------------------------------5-----5-----5----5-----5-----3-----3-----5-----5----3-3-3-3-3-3-3-3-3--6-3-3-3-3-3-3-1-1-1-1-1-1-3-3-3-3-----------------------4------------------------------------

--------------------4--------4----------------------------------------------4--------4----------------------------------------------5--------5-------------------------------5-----5-----------3---------3--3-4-5----------------

-3-3-3-3-3-3-3-3--6----1---6-----1--1-2-3---------------------------------4--------4-----------------------------

9 - final

-------------------------------------------------------------------------------------------------------------------------------------------------------------------------5-----5-----5-7-8--5-----5-----8--3--5-----5-----5-7-8--3-3-3-3-3-3-3-5-6--3-3-3-3-3-3-6--1--3-3-3-3-3-3-3-5-6----------------------------------------------------------

-------------------------------------------------------------------------------------------------------------------------------------------------------------------------5-----5-----8-7-----------------------------------------3-3-3-3-3-3-6-5-------------------------------------------------------------------------------------------------

-------------------------------------------------------------------------------------------------------------------------------------------------------------------------5-----5-----5-7-8--5-----5-----8--3--5-----5-----5-7-8--3-3-3-3-3-3-3-5-6--3-3-3-3-3-3-6--1--3-3-3-3-3-3-3-5-6----------------------------------------------------------

-------------------------------------------------------------------------------------------------------------------------------------------------------------------------5-----5-----8-7--5--------------------------------------3-3-3-3-3-3-6-5--3----------------------------------------------------------------------------------------------