Vous êtes sur la page 1sur 3

AIN’T NO SUNSHINE (John Mayer)

---3--------------------------------------------------
---3-6-3---------------------------------------------
----------------------5------------5----------------
----------------------5h7---------7p5-------------
-------------5-8-------------5-------------8-5----
--3---------5----------------------------------------

---3--------------------------------------------
---3-6-3---------------------------------------
-----------------------5-5-5-5-5--------------
-----------------------5-7-5-7-7p5-----------
--------------5-8------------------------8-5---
--3----------5----------------------------------

--------------------------3----------
--------------------------3-----5---
----3-----3-------------------------
----3-----3------3h5---------3---
5------5-----5---------------------
--------------------------3---------

------------------------3-6----
--6--6--6-----4/5------------
----------------3/4------------
--3--3--3-----2/3------------
---X--X--5-------------------
--------------------------------

----------------------------------------
--5-6-5------6------------------------
-------3--5/7--7\5p3-5---b3-------
----------------------------5-----3-5--
-----------------------------------------
3--------------------------------------
Scale/ try double stops, pull offs, etc

---10---------- ---8--------
---10---13--- ---8--11---
---10---12--- ---8--11---
---10---12--- ---8--11---
---10---12--- ---8--11---
---10---------- ---8---------

SOLO:
-------------------------------------
--/8~-6-3-------------------------
--------------vb5(7)-5-3~-------
----------------------------- - (5)-
-------------------------------------
------------------------------------------

-------6------b6----b7-----
-------6------b6----b7-----
----8---8~-8-----------8~-
--7---------------------------
-------------------------------
-------------------------------

-------------------------------------------
-8-11--b11(13)(13)(13)-- -b11(13)-
--------------------------------------------
--------------------------------------------
--------------------------------------------
--------------------------------------------

------ -8-9-10------8-----------------------
-b11------------b11---11-8--b11-8-8~
-----------------------------------------------
-----------------------------------------------
-----------------------------------------------
--b10(13)--b11(13)(13)--b10(12)r-10-10-8--pb8r-----------8-------------------
--------------------------------------------------------------11-8-b11---11-11b--8~---
----------------------------------------------------------------------------------------------
----------------------------------------------------------------------------------------------
----------------------------------------------------------------------------------------------
----------------------------------------------------------------------------------------------

-------------------- ------------------- ---------------------------------


-15-15-18-18-- -15-18-18-(3x)- -b18(20)-18-15-------------
-------------------- ------------------- ---------------------17-15~---
-------------------- ------------------- ---------------------------------
-------------------- ------------------- ---------------------------------
-------------------- ------------------- ---------------------------------